Red Hot Chili Peppers - Dani California Chords & Tabs

 

Dani California Chords & Tabs

Red Hot Chili Peppers Chords & Tabs

Version: 1 Type: Tab 5 ratings
1 star 2 stars 3 stars 4 stars 5 stars
comments

Dani California Tab

   
Artist:Red Hot Chili Peppers
Song:Dani California
Album:Stadium Arcadium



Verse/intro

E)-------5------3------1-------1---------|
B)-------5------3------3-------3---------|
G)-------5------4------2-------2---------|
D)---7-7-7--5-5-5--0-0-0----0--0---------|
A)---------------------------------------|
E)---------------------------------------|


E)-------------------------------|
B)-------------------------------|
G)------5h7p5-------4h5p4-----7--|
D)--7-7-------7-5-5-------5------|
A)--------------------------5----|
E)-------------------------------|

			

           Chorus

    F     c          D        A
E)---------------------------------------|
B)---------------------------------------|
G)---------------------------------------|
D)--------5----------7-------------------|
A)--3-----3----------5--------7----------|
E)--1-------------------------5----------|



          Bridge                                   

|------7------7------5----5-5----3--------|------7------7------5----5-5----3--------|
|------7------7------5----5-5----3--------|------7------7------5----5-5----3--------|
|------7------7------6----6-6----4--------|------7------7------6----6-6----4--------|
|--9-9-9--9-9-9--7-7-7----7-7--5-5--------|--9-9-9--9-9-9--7-7-7----7-7--5-5--------|
|-----------------------------------------|-----------------------------------------|
|-----------------------------------------|-----------------------------------------|


|------7------7------5----5-5----3--------|------7------7------5---------------|
|------7------7------5----5-5----3--------|------7------7------5---------------|
|------7------7------6----6-6----4--------|------7------7------6---------------|
|--9-9-9--9-9-9--7-7-7----7-7--5-5--------|--9-9-9--9-9-9--7-7-7------5-7------|
|-----------------------------------------|-----------------------5h7-----5----|
|-----------------------------------------|------------------------------------|



         Solo
[ Tab from: http://www.guitartabs.cc/tabs/r/red_hot_chili_peppers/dani_california_tab.html ]
E)-------------------------------------------|---------------------------------------|
B)-------------------------------------------|---------------------------------------|
G)-------------------------------------------|---------------------------------------|
D)-----10-12----10--10--10-------------------|-----10-12----10--10--10--12---17-19---|
A)--12-------12---12--12--12-10p8---------5--|--12-------12---12--12--12---19--------|
E)-------------------------------10-3h5p1----|---------------------------------------|


E)-------------------------------------------|--------------------------------------------------------------------------|
B)-------------------------------------------|--------------------------------------------------------------------------|
G)-------------------------------------------|--------------------------------------------------------------------------|
D)-----10-12----10--10--10-------------------|-----10-12----10--10--10--12---17-19---17-19p17---19p17---19p17---19p17---|
A)--12-------12---12--12--12-10p8---------5--|--12-------12---12--12--12---19------19--------19------19------19------19-|
E)-------------------------------10-3h5p1----|--------------------------------------------------------------------------|


E)--------------------------------------------------|----------------------------------------|
B)--------------------------------------------------|----------------------------------------|
G)---------------------------------------7----------|----------------------------------------|
D)-----10-12----10--10--10--------------------------|-----10-12----10--10--10--12----17-19~--|
A)--12-------12---12--12--12-10p8----8-10--10p8-----|--12-------12---12--12--12---19---------|
E)--------------------------------10------------10--|----------------------------------------|


E)-------------------------------------------|
B)-------------------------------------------|
G)-------------------------------------------|
D)-----10-12----10--10--10-------------------|
A)--12-------12---12--12--12-10p8---------5--|
E)-------------------------------10-3h5p1----|
Comments