Red Hot Chili Peppers - Dani California Solo Chords & Tabs

 

Dani California Solo Chords & Tabs

Red Hot Chili Peppers Chords & Tabs

Version: 1 Type: Tab 1 rating
1 star 2 stars 3 stars 4 stars 5 stars
comments

Dani California Solo Tab

Dani California solo
E------------------------------------------------------------
B--------6---------------------------------------------------P1
G-----5----7-------------------------------------------------
D---7-------------5----5------5----5------------------------
A--------------------8-----8-------------8--5-5------------5
E---------------------------------------------------3-1-3-1--

E--------------------------------------------------------
B--------6--------------------------------------13---15
G-----5----7--------5------5---5-7-----14------------
D---7------------7------7----7-------------------------P2
A--------------------------------------------------------
E--------------------------------------------------------

THEN DO P1 AGAIN THEN DO P2
[ Tab from: http://www.guitartabs.cc/tabs/r/red_hot_chili_peppers/dani_california_solo_tab.html ]
THEN THIS 
E-------------------------------------------------------------------------------------------------------------
B--------13--15--13--------15--13------15--13---------15--13--------15---13--------15--13-------
G---14-----------------14-------------14-------------14------------14---------------14--------------14
D--------------------------------------------------------------------------------------------------------------P3
A--------------------------------------------------------------------------------------------------------------
E---------------------------------------------------------------------------------------------------------------


THEN DO P1 AGAIN P2 AFTER THENP3 DO THAT ACUPLE OF TIMES
ULL GET THE RHYTHM IF U WANT THE MAIN RIFF I RIT THAT ASWELL ND CHORUS WHICH IS WIT IT ANYWAY THE SOLO IS KINDA HARD BUT U GET IT EVENTUALLY

Comments