Red Hot Chili Peppers - Charlie Chords & Tabs

 

Charlie Chords & Tabs

Red Hot Chili Peppers Chords & Tabs

Version: 2 Type: Bass Tab

Charlie Bass Tab

   
"Charlie" by the Red Hot Chili Peppers
From the album "Stadium Arcadium" (Jupiter Disc)
Bassline by Michael Balzary (Flea)
Tabbed by Dan Bogosian (UtBDan)
Visit UtBDan's band's website at:
www.utbrocks.com

INTRO:
G-----------------3---------------3-|
D---------3----2----------3----2----|
A------2----1----------2----1-------|
E---1---------------1---------------|

VERSE:
G-----------------------|
D-----------------------|
A-----------------3--1--|
E-3--(1)1--(3)3---------|

G------------------|
D------------------|
A----------1-3-1-0-|
E-1-3--3-----------|

G-----------------------|
D-----------------------|
A-----------------3--1--|
E-3--(1)1--(3)3---------|

G-----------------------|
D-----------------------|
A----------1-3-1-0--3-5-|
E-1-3--3----------------|

[ Tab from: http://www.guitartabs.cc/tabs/r/red_hot_chili_peppers/charlie_btab_ver_2.html ]
CHORUS: (crank those highs)
G-----8-------7---------14---------12-
D-------------------------------------
A-------------------------------------
E-8-8-----6-6-----13-13------11-11----

G-----8-------7---------14---------12-
D-------------------------------------
A-------------------------------------
E-8-8-----6-6-----13-13------11-11----

G-----8-------7---------14---------14-
D-------------------------------------
A-------------------------------------
E-8-8-----6-6-----13-13------13-13----

G-------------------------
D-------------------------
A-------------------------
E-14-14-14-14-14-14-14-14-

OUTRO:
G---------------3----------------5-
D-1-1-1-111----1---3-3-3-333----3--
A-----------1h3--------------3h5---
E----------------------------------
                       

G---------------7------------------------------
D-5-5-5-555----5---5-5-5-555-5--5--5-5-5-555-3-
A-----------5h7--------------------------------
E----------------------------------------------