Red Hot Chili Peppers - Catholic School Girls Rule Chords & Tabs

 

Catholic School Girls Rule Chords & Tabs

Red Hot Chili Peppers Chords & Tabs

Version: 3 Type: Tab 0 ratings
1 star 2 stars 3 stars 4 stars 5 stars
comments

Catholic School Girls Rule Tab

   
This is the tab of the song Catholic School Girls Rule from the Red Hot
      Chili Peppers album Freaky Styley.


      p=pull off
      H=Harmonic(Only touch the strings right over the fret)


       INTRO:
       -----

                       H  H                H  H  H
      E-----------------------------------------------------------------------
      B------------------------------------5--5--5----------------------------
      G----------------4--4----------------5--5--5----------------------------
      D----------------4--4----------------5--5--5----------------------------
      A----------------4--4-------------------5--5-------------3--------------
      E---3---5--5p0---4--4---3---5--5p0-------------3---5--5-------5--5--3---



                   H  H  H                H  H  H                 H   H
      E-----------------------------------------------------------------------
      B---------------7-------------------------------------------------------
      G------------5--7--5----------------5-----------------------4---4-------
      D------------5--7--5----------------5--5--5-----------------4---4-------
      A---------------7----------------------5--5-----------------4---4-------
      E---5--5p0-------------3---5--5p0--------------3---5--5p0---4---4---3---



                                         H  H  H               H  H
      E-----------------------------------------------------------------------
      B---------------------------------12--7--7------------------------------
      G-------------------------------------7--7--------------5--7------------
      D-------------------------------------7--7--------------5--7------------
      A---------5------------------------------------------------7------------
      E---5--5------5--5--3---5--5p0---------------3---5--5p0----------3------



                   H  H  H                                      H  H  H
      E-----------------------------------------------------------------------
      B------------4--4--4--------------------------------------7--7--7-------
      G------------4--4--4--------------------------------------7--7--7-------
      D------------4--4--4--------------------------------------7--7--7-------
      A--------------------------------3------------------------7-------------
      E---5--5p0-------------3---5--5------5--5---3---5--5--7-------------3---



                   H  H                H  H
      E-----------------------------------------------------------------------
      B-----------------------------------------------------------------------
      G------------4--4----------------5--7-----------------------------------
      D------------4--4----------------5--7-----------------------------------
      A------------4--4-------------------7---------------5-------------------
      E---5--5p0---4--4---3---5--5p0-----------3---5---5-------5---5---3------



[ Tab from: http://www.guitartabs.cc/tabs/r/red_hot_chili_peppers/catholic_school_girls_rule_tab_ver_3.html ]
      E-----------------------------------------------------------------------
      B-----------------------------------------------------------------------
      G-----------------------------------------------------------------------
      D-----------------------------------------------------------------------
      A------------------0----------------------------------------------------
      E---5--5----------------------------------------------------------------




        VERSE:
        -----


      E------------------------------------------------------------------------
      B------------------------------------------------------------0----0------
      G------------------------------------------------------0--2----2---------
      D---------------------------------------------------4--------------------
      A---0---0--3--2---2-2-2-2--2---2---2---0--0--3--2---------------------0--
      E------------------------------------------------------------------------




      E------------------------2---2--2-----------------------------------------
      B---------------3--3-----3---3--3--------------------------------3--3-----
      G---------------0--0--2--2---2--2--------------------------------2--2-----
      D------------------------0---------------------------------------0--0-----
      A---0--3--2p0----------------------0---0--3--2---2--2---2p0--0------------
      E-----------------------------------------------------------------------3-





        BRIDGE:
        ------



E-------------------------------------------------------------------------
B-------------------------------------------------------------------------
G-------------------------------------------------------------------------
D-------------------------------------------------------------------------
A-------------------------------------------------------------------------
E---1---1--1--2--3---3---3--3--3--3--1---1--2--3---3---3--3--3---3--3--3--





E-------------------------------------------------------------------------
B-------------------------------------------------------------------------
G-------------------------------------------------------------------------
D-------------------------------------------------------------------------
A-------------------------------------------------------------------------
E---3--3--4--5---5---5--5--5--5--5--3---3--3--4--5---5---5---5---5--5-----



                                  Repeat

E-------------------------------------------------------------------------
B-------------------------------------------------------------------------
G-------------------------------------------------------------------------
D---3--0---0---0--0-----5--0---0---0--0-----7--0---0---0------------------
A--------------------0-------------------0----------------0--0------------
E-------------------------------------------------------------------------





E-------------------------------------------------------------------------
B---9--------9------9-------9-------9-----9----9----9----9----9---9-------
G---9--------9------9-------9-------9-----9----9----9----9----9---9-------
D---9--------9------9-------9-------9-----9----9----9----9----9---9-------
A---7--------7------7-------7-------7-----7----7----7----7----7---7-------
E---------------------------------------------------------------------3---
Comments