Red Hot Chili Peppers - Catholic School Girls Rule Chords & Tabs

 

Catholic School Girls Rule Chords & Tabs

Red Hot Chili Peppers Chords & Tabs

Version: 2 Type: Tab 1 rating
1 star 2 stars 3 stars 4 stars 5 stars
comments

Catholic School Girls Rule Tab

Artist:Red Hot Chili Peppers
Album:Freaky Styley
Song:Catholic School Girls Rule
Tabbed by Greenie 12


Riff 1

e-|--------------------------------------------------------|
B-|----------x-x-x----------x-x-x--------------------------|
G-|----------x-x-x----------x-x-x--------------------------|
D-|----------x-x-x----------x-x-x--------------------------|
A-|----------x-x-x----------x-x-x----------3---------------|
E-|--3--5-5---------3--5-5---------3--5-5-----5-5--3--5-5--|

e-|--------------------------------------------------------|
B-|----------x-x-x----------x-x-x--------------------------|
G-|----------x-x-x----------x-x-x--------------------------|
D-|----------x-x-x----------x-x-x--------------------------|
A-|----------x-x-x----------x-x-x----------5---------------|
E-|--3--5-5---------3--5-5---------3--5-5-----5-5--3--5-5--|


Riff 2

e-|----------------|-------------------|
B-|----------------|-------------------|
G-|-----2---5-4----|------2-----5-4----|
D-|-----2---5-4----|------2-----5-4----|
A-|-----0---3-2----|------0-----3-2----|
E-|----------------|-------------------|

Riff 3

e-|---------------------------|---------------------------|
B-|---------------------------|---------------------------|
G-|---------------------------|---------------------------|
D-|--3--4--5--5-5--x--5--5-5--|--3--4--5--5-5--x--5--5-5--|
A-|--3--4--5--5-5--x--5--5-5--|--3--4--5--5-5--x--5--5-5--|
E-|--1--2--3--3-3--x--3--3-3--|--1--2--3--3-3--x--3--3-3--|
[ Tab from: http://www.guitartabs.cc/tabs/r/red_hot_chili_peppers/catholic_school_girls_rule_tab_ver_2.html ]
e-|---------------------------|---------------------------|
B-|---------------------------|---------------------------|
G-|---------------------------|---------------------------|
D-|--5--6--7--7-7--x--7--7-7--|--5--6--7--7-7--x--7--7-7--|
A-|--5--6--7--7-7--x--7--7-7--|--5--6--7--7-7--x--7--7-7--|
E-|--3--4--5--5-5--x--5--5-5--|--3--4--5--5-5--x--5--5-5--|

Riff 4

Gtr. 1
e-|----------------------------|-----------------------------------|
B-|----------------------------|-----------------------------------|
G-|----------------------------|-----------------------------------|
D-|--3--0-0-0-0----5--0-0-0-0--|--3--0--0-0--5--0--0-0--7--0--0-0--|
A-|----------------------------|-----------------------------------|
E-|----------------------------|-----------------------------------|

e-|----------------------------|-----------------------------------|
B-|----------------------------|-----------------------------------|
G-|----------------------------|-----------------------------------|
D-|--3--0-0-0-0----5--0-0-0-0--|--3--0--0-0--5--0--0-0--7--0--0-0--|
A-|----------------------------|-----------------------------------|
E-|----------------------------|-----------------------------------|

Gtr. 2
e-|-----------------|--------------------|
B-|-----------------|--------------------|
G-|--3-----5-----5--|--3------5------12--|
D-|--3-----5-----5--|--3------5------12--|
A-|-----------------|--------------------|
E-|-----------------|--------------------|


Riff 5

e-|--------------------------------------|
B-|--------------------------------------|
G-|--9--9----9--9----9-9--9-9--9-9--9-9--|
D-|--9--9----9--9----9-9--9-9--9-9--9-9--|
A-|--7--7----7--7----7-7--7-7--7-7--7-7--|
E-|--------------------------------------|

Riff 6

e-|--------------|
B-|--------------|
G-|--------------|
D-|--------------|
A-|--------------|
E-|----3--5-5----|

Riff Order:

Riff 1 2x
Riff 2 2x
Riff 1 2x
Riff 2 2x
Riff 3 1x
Riff 4 1x
Riff 5 1x
Riff 1 2x
Riff 2 2x
Riff 6 1x
Comments