Red Hot Chili Peppers - Catholic School Girls Rule Chords & Tabs

 

Catholic School Girls Rule Chords & Tabs

Red Hot Chili Peppers Chords & Tabs

Version: 3 Type: Bass Tab

Catholic School Girls Rule Bass Tab

   
?|                                       chorus|
 |  G  A     G  A     G  A     C  A     G  A   |
G|---------------------------------------------|
D|---------------------------------------------|
A|-----------------------------3---------------|
E|--3--5-5---3--5-5---3--5-5------5-5---3--5-5-|


?|                                 chorus cont.|
 |  G  A     G  A     G  A     D  A     G  A   |
G|---------------------------------------------|
D|---------------------------------------------|
A|-----------------------------5---------------|
E|--3--5-5---3--5-5---3--5-5------5-5---3--5-5-|

[ Tab from: http://www.guitartabs.cc/tabs/r/red_hot_chili_peppers/catholic_school_girls_rule_btab_ver_3.html ]
?|                                        verse|
 |  G  A# A     G  A# A                        |
G|---------------------------------------------|
D|---------------------------------------------|
A|---------------------------------------------|
E|--3--6--5-----3--6--5---/--------------------|

After the second time just slide down to about 10.


?|                   x2|                     x2|
G|---------------------|-----------------------|
D|---------------------|-----------------------|
A|---------------------|-----------------------|
E|--3--5--5-5-5-5-5-5--|--5--7--7-7-7-7-7-7----|

This is played after the second verse.


?|                                           x2|
 |  D  E     D  E     D  D   D  E              |
G|---------------------------------------------|
D|---------------------------------------------|
A|--5--7-7---5--7-7---5--5---5--7-7------------|
E|---5--------5--------5--5---5----------------|

?|                                           x1|
G|---------------------------------------------|
D|---------------------------------------------|
A|---------------------------------------------|
E|--7--7-7---7--7-7--7--7-7--7--7-7--7--7-7----|

This is played just after the previous riffs,
with the same rhythm as the chorus.. (almost).


And that's all, y'all!