Red Hot Chili Peppers - Carbon Correct Chords & Tabs

 

Carbon Correct Chords & Tabs

Red Hot Chili Peppers Chords & Tabs

Version: 1 Type: Tab 3 ratings
1 star 2 stars 3 stars 4 stars 5 stars
comments

Carbon Correct Tab

Corbon carrect
Red hot chili peppers
This submission is 100% correct for sure. Trust me!
I got this from one of the best, Davy S.

INTRO strum these cords once
--10------------7-----------10------------7---
---0------------0------------0------------0---
---0------------0------------0------------0---
---9------------5------------9------------5---
---x------------7-----------10------------7---
--10------------0-----------10------------0---

------0---------0------0-------0-----------0--------2--
--------1-----1------------------1-------1----------3--
-------------------0--------------------------0-----2--
-----------2-------------------------2--------------0--
---3-----------------------3---------------------------
-------------------------------------------------------
[ Tab from: http://www.guitartabs.cc/tabs/r/red_hot_chili_peppers/carbon_correct_tab.html ]
-----------3--3--3--3---3--3-------------0---0--0---0----0--0---------
0----------0--0--0--0---0--0--2-0--------0---0--0---0----0--0--0------
--2-0---2--0--0--0--0---0--0------4-0----0---0--0---0----0--0----2-0--
------4----0--0--0--0---0--0----------2--2---2--2---2----2--2--------4
-----------x--x--x--x---x--x-------------2---2--2---2----2--2---------
-----------3--3--3--3---3--3-------------0---0--0---0----0--0---------

Now strum these cords through out the rest of the song

----------------------------------------------------------------------
----------------------------------------------------------------------
-------------------------------------0--0--0--0--0----0--0--0--0--0--0
--0--0--0--0--0----0--0--0--0--0--0--2--2--2--2--2----2--2--2--2--2--2
--2--2--2--2--2----2--2--2--2--2--2--2--2--2--2--2----2--2--2--2--2--2
--3--3--3--3--3----3--3--3--3--3--3--0--0--0--0--0----0--0--0--0--0--0

Comments