Red Hot Chili Peppers - Cant Stop Chords & Tabs

 

Cant Stop Chords & Tabs

Red Hot Chili Peppers Chords & Tabs

Version: 9 Type: Tab 0 ratings
1 star 2 stars 3 stars 4 stars 5 stars
comments

Cant Stop Tab

Band : red hot chilli peppers
Song : cant stop
Tabbed by : Ashley sams
Email : sammy@samsrd.freeserve.com

This is a really cool song but i've seen some terrible tabs
for it , especially the solo, but i'm sure this is right.
It's not hard and is offcourse in EADGBE.

^ = bend up 


intro (repeat)
|-------------------------|
|-------------------------|
|-------------------------|
|-------------------------|
|-5-7--5-7--5-7--5-7--5-7-|
|-------------------------|
[ Tab from: http://www.guitartabs.cc/tabs/r/red_hot_chili_peppers/cant_stop_tab_ver_9.html ]
Verse / main riff (repeat)
|-------------------------------------------------------------------------------
|-------------------------------------------------------------------------------
|------7-9-------7-9---------7-9-------7-9---------7-9-------7-9----------------
|-------------------------------------------------------------------------------
|-7-7------7-7-7-----7-7-7-5-----5-5-5-----5-5-5--------------------------------
|------------------------------------------------7-----7-7-7--------------------

|-------------------------------|
|-------------------------------|
|-------------------------------|
|---------7-9-------7-9---------|
|-----------------------------7-|
|-7-7-7-8-----8-8-8-----8-8-8---|

chorus
|-------------------------------------------------|
|-------------------------------------------------|
|-9-9--7-7-7--4-4--5-5-5--------7-7-7--4-4--5-5-5-|
|-9-9--7-7-7--4-4--5-5-5---5-5--7-7-7--4-4--5-5-5-|
|-7-7--5-5-5--2-2--3-3-3---5-5--5-5-5--2-2--3-3-3-|
|--------------------------3-3--------------------|

Solo
|-----------------------------|
|-17^--17^-15^--15^-12--12----|
|--------------------------12-|
|-----------------------------|
|-----------------------------|
|-----------------------------|

That's it , enjoy !!!!!!!!!!!!!!!!

Munkyheadojo
Comments