Red Hot Chili Peppers - Cant Stop Chords & Tabs

 

Cant Stop Chords & Tabs

Red Hot Chili Peppers Chords & Tabs

Version: 2 Type: Tab 32 ratings
1 star 2 stars 3 stars 4 stars 5 stars
comments

Cant Stop Tab

Can’t Stop - RHCP - By The Way.  Tabbed by John.
Verse

E|--------------------------------------------------------------------------------------------------|-|
B|----------------------------------------------------------------------------------------.---------|-|
D|-----7-9-------7-9--------7-9-------7-9---------7-9---------7-9--------7-9--------7-9----|-|
G|------------------------0-----0-0-0------0-0--------------------------------------------------|-|
A|-7-7-----7-7-7------7-7-----------------------------------------------------------------------|-|
E|---------------------------------------------7--------7-7-7------7-7-8------8-8-8-------------|-|

(Vocals come in)

E|--------------------------------------------------------------------------------------------------|-|
B|----------------------------------------------------------------------------------------.---------|-|
D|-----7-9-------7-9--------7-9-------7-9---------7-9---------7-9--------7-9--------7-9----|-|
G|------------------------0-----0-0-0------0-0--------------------------------------------------|-|
A|-7-7-----7-7-7------7-7-----------------------------------------------------------------------|-|
E|---------------------------------------------7--------7-7-7------7-7-8------8-8-8-------------|-|


E|--------------------------------------------------------------------------------------------------|-|
B|----------------------------------------------------------------------------------------.---------|-|
D|-----7-9-------7-9--------7-9-------7-9---------7-9---------7-9--------7-9--------7-9----|-|
G|------------------------0-----0-0-0------0-0--------------------------------------------------|-|
A|-7-7-----7-7-7------7-7-----------------------------------------------------------------------|-|
E|---------------------------------------------7--------7-7-7------7-7-8------8-8-8-------------|-|


E|--------------------------------------------------------------------------------------------------|-|
B|----------------------------------------------------------------------------------------.---------|-|
D|-----7-9-------7-9--------7-9-------7-9---------7-9---------7-9--------7-9--------7-9----|-|
G|------------------------0-----0-0-0------0-0--------------------------------------------------|-|
A|-7-7-----7-7-7------7-7-----------------------------------------------------------------------|-|
E|---------------------------------------------7--------7-7-7------7-7-8------8-8-8-------------|-|


E|--------------------------------------------------------------------------------------------------|-|
B|----------------------------------------------------------------------------------------.---------|-|
D|-----7-9-------7-9--------7-9-------7-9---------7-9---------7-9--------7-9--------7-9----|-|
G|------------------------0-----0-0-0------0-0--------------------------------------------------|-|
A|-7-7-----7-7-7------7-7-----------------------------------------------------------------------|-|
E|---------------------------------------------7--------7-7-7------7-7-8------8-8-8-------------|-|







     Chorus

E|--3--x--x--x--2---7---7---7--|
B|--2--x--x--x--3---8---8---8--|
D|--0--0--0--0--2---9---9---9--|      x 4
G|--0--2--2--2--4--10--10--10-|
A|--3--3--3--3--4---x---x---x--|
E|--3--2--2--2--2---x---x---x--|

(Change chords as bass changes notes)

Verse

E|--------------------------------------------------------------------------------------------------|-|
B|----------------------------------------------------------------------------------------.---------|-|
D|-----7-9-------7-9--------7-9-------7-9---------7-9---------7-9--------7-9--------7-9----|-|
G|------------------------0-----0-0-0------0-0--------------------------------------------------|-|
A|-7-7-----7-7-7------7-7-----------------------------------------------------------------------|-|
E|---------------------------------------------7--------7-7-7------7-7-8------8-8-8-------------|-|


E|--------------------------------------------------------------------------------------------------|-|
B|----------------------------------------------------------------------------------------.---------|-|
D|-----7-9-------7-9--------7-9-------7-9---------7-9---------7-9--------7-9--------7-9----|-|
G|------------------------0-----0-0-0------0-0--------------------------------------------------|-|
A|-7-7-----7-7-7------7-7-----------------------------------------------------------------------|-|
E|---------------------------------------------7--------7-7-7------7-7-8------8-8-8-------------|-|

[ Tab from: http://www.guitartabs.cc/tabs/r/red_hot_chili_peppers/cant_stop_tab_ver_2.html ]
E|--------------------------------------------------------------------------------------------------|-|
B|----------------------------------------------------------------------------------------.---------|-|
D|-----7-9-------7-9--------7-9-------7-9---------7-9---------7-9--------7-9--------7-9----|-|
G|------------------------0-----0-0-0------0-0--------------------------------------------------|-|
A|-7-7-----7-7-7------7-7-----------------------------------------------------------------------|-|
E|---------------------------------------------7--------7-7-7------7-7-8------8-8-8-------------|-|


E|--------------------------------------------------------------------------------------------------|-|
B|----------------------------------------------------------------------------------------.---------|-|
D|-----7-9-------7-9--------7-9-------7-9---------7-9---------7-9--------7-9--------7-9----|-|
G|------------------------0-----0-0-0------0-0--------------------------------------------------|-|
A|-7-7-----7-7-7------7-7-----------------------------------------------------------------------|-|
E|---------------------------------------------7--------7-7-7------7-7-8------8-8-8-------------|-|





Chorus

E|--3--x--x--x--2---7---7---7--|
B|--2--x--x--x--3---8---8---8--|
D|--0--0--0--0--2---9---9---9--|      x 4
G|--0--2--2--2--4--10--10--10-|
A|--3--3--3--3--4---x---x---x--|
E|--3--2--2--2--2---x---x---x--|

(Change chords as bass changes notes)

Bridge

E|--7--7--7--7--5--5--5--5--2--2--2--2--3--3--3--3|-|
B|--8--8--8--8--5--5--5--5--3--3--3--3--3--3--3--3|-|
D|--7--7--7--7--5--5--5--5--2--2--2--2--3--3--3--3|-|     x 4
G|--9--9--9--9--7--7--7--7--4--4--4--4--5--5--5--5|-|
A|--9--9--9--9--7--7--7--7--4--4--4--4--5--5--5--5|-|
E|--7--7--7--7--5--5--5--5--2--2--2--2--3--3--3--3|-|

(play on the upstroke, listen to song for extra guidance)


Solo 

E|--12*----12----10*----10----7*----7----3*
B|-----------------------------------------------
D|----------------------------------------------
G|----------------------------------------------
A|----------------------------------------------
E|------------------------------------------------

E|--12----12^----10----10^----7----7^----3
B|----------------------------------------------
D|---------------------------------------------
G|---------------------------------------------
A|---------------------------------------------
E|--------------------------------------------




Verse

E|--------------------------------------------------------------------------------------------------|-|
B|----------------------------------------------------------------------------------------.---------|-|
D|-----7-9-------7-9--------7-9-------7-9---------7-9---------7-9--------7-9--------7-9----|-|
G|------------------------0-----0-0-0------0-0--------------------------------------------------|-|
A|-7-7-----7-7-7------7-7-----------------------------------------------------------------------|-|
E|---------------------------------------------7--------7-7-7------7-7-8------8-8-8-------------|-|


E|--------------------------------------------------------------------------------------------------|-|
B|----------------------------------------------------------------------------------------.---------|-|
D|-----7-9-------7-9--------7-9-------7-9---------7-9---------7-9--------7-9--------7-9----|-|
G|------------------------0-----0-0-0------0-0--------------------------------------------------|-|
A|-7-7-----7-7-7------7-7-----------------------------------------------------------------------|-|
E|---------------------------------------------7--------7-7-7------7-7-8------8-8-8-------------|-|


E|--------------------------------------------------------------------------------------------------|-|
B|----------------------------------------------------------------------------------------.---------|-|
D|-----7-9-------7-9--------7-9-------7-9---------7-9---------7-9--------7-9--------7-9----|-|
G|------------------------0-----0-0-0------0-0--------------------------------------------------|-|
A|-7-7-----7-7-7------7-7-----------------------------------------------------------------------|-|
E|---------------------------------------------7--------7-7-7------7-7-8------8-8-8-------------|-|


E|--------------------------------------------------------------------------------------------------|-|
B|----------------------------------------------------------------------------------------.---------|-|
D|-----7-9-------7-9--------7-9-------7-9---------7-9---------7-9--------7-9--------7-9----|-|
G|------------------------0-----0-0-0------0-0--------------------------------------------------|-|
A|-7-7-----7-7-7------7-7-----------------------------------------------------------------------|-|
E|---------------------------------------------7--------7-7-7------7-7-8------8-8-8-------------|-|

All 100% correct, unlike the other tabs of this...
Comments