Red Hot Chili Peppers - Can't Stop Live At Slane Castle Chords & Tabs

 

Can't Stop Live At Slane Castle Chords & Tabs

Red Hot Chili Peppers Chords & Tabs

Version: 1 Type: Tab 4 ratings
1 star 2 stars 3 stars 4 stars 5 stars
comments

Can't Stop Live At Slane Castle Tab

Red Hot Chili Peppers 
Can't Stop
Live At Slane Castle

It may seem a little complicated but it's not...and it is great (doesn't only sound real, 
it is also tabbed right)

TIPS: (h)=hammer, (b)=bend, (/)=slide, (x)=muted

TUNING: highlight the midd and high sounds

PLAYING ORDER:

INTRO
PRE-VERSE
VERSE 1    x2
VERSE 2
CHORUS 1
CHORUS 2
CHORUS 1
CHORUS 2
VERSE 1    x3
VERSE 2
CHORUS 1
CHORUS 2
CHORUS 1
CHORUS 2
INTERLUDE PART 1
INTERLUDE PART 2
INTERLUDE PART 3    x2
SOLO
VERSE 1    x4
FINAL NOTE


INTRO

---------------------|
---------------------|
---------------------| x4
---------------------|
-5h7-5h7-5h7-5h7-5h7-|
---------------------|

---------------------|
---------------------|
---------------------|
-7--7-5-6--7-7b------|
---------------------|
---------------------|

---------------------|
---------------------|
---------------------| x3
---------------------|
-5h7-5h7-5h7-5h7-5h7-|
---------------------|

---------------------|
---------------------|
---------------------|
-------------6/7-6-5-|
-5h7-5h7-5h7---------|
---------------------|

---------------------|
---------------------|
---------------------| x4
---------------------|
-5h7-5h7-5h7-5h7-5h7-|
---------------------|

PRE-VERSE

------------------------|
---0-0--0-0-0-0--0--0---|
---5-7--5-5-5-5--7--5---| x7 (After 4th, vocals start)
-0-0-7--0-0-0-0--7--0-0-|
-0-0-0--0-0-0-0--0--0-0-|
-5---5--5-5-5-5--5----5-|

------------------------|
---0-0--0-0-0-0--0--0---|
---5-7--5-5-5-5--7--7---| (Ends with the drum fill)
-0-0-7--0-0-0-0--7--7-0-| 
-0-0-0--0-0-0-0--0--0-0-|
-5---5--5-5-5-5--5--5-5-|

VERSE 1

--------x--------x---|
---0-0--x-0-0--0-x---|
---7-9--x-7-7--7-x---| x3
-0-0-9--x-0-0--0-x-0-|
-0-0-0--x-0-0--0-x-0-|
-7---7--x-7-7----x-7-|

--------x--------x---|
---0-0--x-0-0--0-x---|
---7-9--x-0-9--7-x---|
-0-0-9--x-9-9--0-x-0-|
-0-0-0--x-0-0--0-x-0-|
-7---7--x-7-7----x-7-|

VERSE 2

--------x--------x---|
---0-0--x-0-0--0-x---|
---7-9--x-7-7--7-x---| x3
-0-0-9--x-0-0--0-x-0-|
-0-0-0--x-0-0--0-x-0-|
-7---7--x-7-7----x-7-|

-7-7-7-7-7-7-7--7-7-7-7-7-7-|
-8-8-8-8-8-8-8--8-8-8-8-8-8-|
-9-9-9-9-9-9-9--9-9-9-9-9-9-|
-9-9-9-9-9-9-9--9-9-9-9-9-9-|
----------------------------|
----------------------------|

CHORUS PART 1

-0--0-0--0-0-0--0--0-0--0-0---0--0--0---0--0-|
-5--5-5--7-7-7--7--7-7--7-7---8--8--8---8--8-|
-5--5-5--0-0-0--0--8-8--8-8---9--9--9---9--9-|
-5--5-5--7-7-7--7--9-9--9-9--10-10-10--10-10-|
-3--3-3--5-5-5--5--9-9--9-9--10-10-10--10-10-|
-------------------7-7--7-7---0--0--0---0--0-|

CHORUS PART 2
[ Tab from: http://www.guitartabs.cc/tabs/r/red_hot_chili_peppers/cant_stop_live_at_slane_castle_tab.html ]
-3-3-3-3-3--5-5-5-5-5--0-0-0-0-0---0--0--0--0--0-|
-3-3-3-3-3--7-7-7-7-7--7-7-7-7-7---8--8--8--8--8-|
-4-4-4-4-4--6-6-6-6-6--8-8-8-8-8---9--9--9--9--9-|
-5-5-5-5-5--7-7-7-7-7--9-9-9-9-9--10-10-10-10-10-|
-5-5-5-5-5--5-5-5-5-5--9-9-9-9-9--10-10-10-10-10-|
-3-3-3-3-3--5-5-5-5-5--7-7-7-7-7---0--0--0--0--0-|

CHORUS PART 3

-3-3-3-3-3--5-5-5-5-5--0-----------0-|
-3-3-3-3-3--7-7-7-7-7--7-----------8-|
-4-4-4-4-4--6-6-6-6-6--8-----------9-|
-5-5-5-5-5--7-7-7-7-7--9----------10-|
-5-5-5-5-5--5-5-5-5-5--9----------10-|
-3-3-3-3-3--5-5-5-5-5--7-----------0-|

INTERLUDE PART 1

-7--7--7--7--5--5--5--7--2--2--5--2--3--3--3--7-|
-8--8--8--8--7--7--7--8--3--3--7--3--5--5--5--7-|
-9--9--9--9--7--7--7--9--4--4--7--4--5--5--5--9-|
-9--9--9--9--7--7--7--9--4--4--7--4--5--5--5--9-|
------------------------------------------------|
------------------------------------------------|

INTERLUDE PART 2

-7--7--7--5--5--5--5--7--2--2--7--2--3--3--3--7-|
-8--8--8--7--7--7--7--8--3--3--8--3--5--5--5--7-|
-9--9--9--7--7--7--7--9--4--4--9--4--5--5--5--9-|
-9--9--9--7--7--7--7--9--4--4--9--4--5--5--5--9-|
------------------------------------------------|
------------------------------------------------|

INTERLUDE PART 3 (Played with some weird flanger effect)

-7-7-7-7-7-7-7--5-5-5-5-5-5-5--2-2-2-2-2-2-2--3-3-3-3-3-3-3-|
-8-8-8-8-8-8-8--7-7-7-7-7-7-7--3-3-3-3-3-3-3--5-5-5-5-5-5-5-|
-9-9-9-9-9-9-9--7-7-7-7-7-7-7--4-4-4-4-4-4-4--5-5-5-5-5-5-5-|
-9-9-9-9-9-9-9--7-7-7-7-7-7-7--4-4-4-4-4-4-4--5-5-5-5-5-5-5-|
------------------------------------------------------------|
------------------------------------------------------------|

SOLO (At least played with distortion)

-------------------------------------------------------------------------|
-17p15--////--17p15--//--15/17--//------19-17--19-17--19-17-(  Repeat   )|
-----------------------------------18-18-----18-----18------(   alot    )|
-------------------------------------------------------------------------|
-------------------------------------------------------------------------|
-------------------------------------------------------------------------|

--------------------------------------------------------------------|
-17p15--////--15-17-21-19--//////--17-21-19--////--19-17-15--//////-|
--------------------------------------------------------------------|
--------------------------------------------------------------------|
--------------------------------------------------------------------|
--------------------------------------------------------------------|

FINAL NOTE

-----|
-----|
-----|
--0--|
--0--|
--7--|


Comments