Red Hot Chili Peppers - Californication Chords & Tabs

 

Californication Chords & Tabs

Red Hot Chili Peppers Chords & Tabs

Version: 20 Type: Tab 0 ratings
1 star 2 stars 3 stars 4 stars 5 stars
comments

Californication Tab

   
Californication
By Red Hot Chili Peppers
Tabbed by Dan Gonko


Intro and verses
e -----------------------|--------------------|
B --------3--------------|--------------------|
G ------4----------------|------0-2-----------|
D ----1--------0h2p0-----|--------0------0----|
A --0----------------3---|----3------------3--|
E -----------------------|--1-----------------|

e -----------------------|-----------------|
B --------3--------------|-----------------|
G ------4----------------|------0-2--------|
D ----1--------0h2p0-----|--------3---3-0--|
A --0----------------3---|----3------------|
E -----------------------|--1--------------|
 



e ---------------------------------|--------1-------------1---|
B --------1-----------------3------|--------1-------------3---|
G -----0--------------------0------|-----2-------------2------|
D --2------------------------------|--3-------------0---------|
A --3--------------------2---------|--3-----------------------|
E --------------------3------------|--------------------------|
   If you want these kind of dreams it's Californication


Pre-Chorus:

Am 
Pay your surgeon very well
F  
To break the spell of aging
Am
Celebrity skin is this your chin
F
Or is that war your waging


Chorus:

Am            F
First born unicorn
Am             F   
Hard core soft porn
C            G    F    
Dream of Californication
C            G    F    AmII
Dream of Californication  


Solo:
[ Tab from: http://www.guitartabs.cc/tabs/r/red_hot_chili_peppers/californication_tab_ver_20.html ]
e ------9------------------9--------------------------------
B --10------7b9r7------10------7b9r7------------------------
G ---------------------------------------11-11-11-11r9------
D ------------------------------------------------------11--
A ----------------------------------------------------------
E ----------------------------------------------------------

e --------------------------------------9---12--14vvvvvv----
B ----------------------------------10----------------------
G ------------9---11b13r11---9------------------------------
D -11---9-11-----------------11-----------------------------
A ----------------------------------------------------------
E ----------------------------------------------------------

e -----9---12--14b16r14-14------17--16--14--12--14-12---12---
B -10------------------------------------------------14---14-
G -----------------------------------------------------------
D -----------------------------------------------------------
A -----------------------------------------------------------
E -----------------------------------------------------------

e -------------------------12-------14b16r14-12-----12-------
B --12b14---12b14---12b14-----14----------------14-----14----
G -----------------------------------------------------------
D -----------------------------------------------------------
A -----------------------------------------------------------
E -----------------------------------------------------------

e ---------12-----------------|
B -12--10------15-14---10-----|
G ----------------------------|
D ----------------------------|
A ----------------------------|
E ----------------------------|

Back to main riff

Am     577555
F      133211
C      335553
G      355433
AmII   x02210

Comments