Red Hot Chili Peppers - Californication Chords & Tabs

 

Californication Chords & Tabs

Red Hot Chili Peppers Chords & Tabs

Version: 2 Type: Tab 11 ratings
1 star 2 stars 3 stars 4 stars 5 stars
comments

Californication Tab

   
Red Hot Chili Peppers
"Californication"
from the album of the same name
Tabbed by Matt Wilson, Headbngr31@aol.com

I'm just going to give you the parts here, you can figure out the
timing, 
etc, on your own.

Intro/Verse

e|---------------------------------------------
B|-----------1---------------------------------
G|--------4-------------------------2----------
D|-----2--------2-0h2p0----------3-----3--0----
A|--0-------------------3-----3-------------0--
E|-------------------------1-------------------

Interlude (The "If you want these kind of dreams..." part)

e|-------0--------------0------1---
B|-------1-------3------1------3---
G|-------0-------0------2----2-----
D|----2----------0----2----0-------
A|--3----------2----0--------------
E|-----------3---------------------

Bridge (The "Pay your surgeon..." part)
Just strum around on these chords...
    Am  Fmaj7
e|--0----0----
B|--1----1----
G|--2----2----
D|--2----3----
A|--0----0----
E|------------
[ Tab from: http://www.guitartabs.cc/tabs/r/red_hot_chili_peppers/californication_tab_ver_2.html ]
Chorus (The "Dream of Californication..." part)
Again, strum a bit on these chords...
    C   G/B   Am
e|--0----0----0--
B|--1----3----1--
G|--0----0----2--
D|--2----0----2--
A|--3----2----0--
E|---------------

Solo
This is just from memory, so if there's a note that sounds wrong, it
is... 
just fix it

e|-----9------------9---------------------------------9-12-14~~------9-12-14b1
6-14--
B|--10-----------10--------------------------------10-------------10----------
------
G|-------11b13--------11b13--11-11--11^9----9---------------------------------
------
D|---------------------------------------11---11------------------------------
------
A|----------------------------------------------------------------------------
------
E|----------------------------------------------------------------------------
------

e|--17-16-14-12----12----12-----------------------12-14b16-14---10-9----
B|--------------14----14----12b14-12b14-12b14--14--------------------10-
G|----------------------------------------------------------------------
D|----------------------------------------------------------------------
A|----------------------------------------------------------------------
E|----------------------------------------------------------------------

That should do it.  I'm sure there's somethign wrong with the solo,
just look 
for the right notes... well, anyways, it's going on midnight, so I'm
out!  
ENJOY!
Comments