Red Hot Chili Peppers - Californication Chords & Tabs

 

Californication Chords & Tabs

Red Hot Chili Peppers Chords & Tabs

Version: 8 Type: Bass Tab 0 ratings
1 star 2 stars 3 stars 4 stars 5 stars
comments

Californication Bass Tab

Californication
Red Hot Chilli Peppers
Tabbed by enemyoffline

Intro
|-----9-9-7h9-7-5-|-----7-7-5-|-----9-9-7h9-7-5-|-----10-10-7-|
|-----------------|-3-3-------|-----------------|-3-3---------|
|-0-0-------------|-----------|-0-0-------------|-------------|
|-----------------|-----------|-----------------|-------------|
after playing that abit the play

|-----------------|
|-----------------|
|-3-3-------------|
|------3-3-1-1-5-5-|
this is also part of the verse

Verse

|------9-9-7h9-7-5-|------7-7-5-|-----9-9-7h9-7-5-|-----10-10-7-|
|-7-7-------------------|-3-3-------|-7-7-----------------|-3-3---------|
|-------------------------|-----------|-----------------------|--------|
|---------------------------|-----------|----------------------|------------|
after playing that abit the play

Pre-chours 1 and 2
|-------------4-5-||--------------5-4---|-------------4-5-|-------------59754-
--|
|-7-7-7777-----||-3-3-3333-----4-|-7-7-7777-----|-3-3-3333-------5-|
|-------------------||---------------------|-------------------|--------------
----|
|-------------------||---------------------|------------------|---------------
---|

|-------------4-5-||--------------5-4---|------------4-5-|--------------0h5-0h
5-4--|
|-7-7-7777-----||-3-3-3333-----4-|-7-7-7777-----|-3-3-3333--------------5-|
|------------------||----------------------|-------------------|--------------
---------------|
|------------------||----------------------|------------------|---------------
--------------|
[ Tab from: http://www.guitartabs.cc/tabs/r/red_hot_chili_peppers/californication_btab_ver_8.html ]
|-------------4-5-||--------------5-4---|-------------4-5-|-------------------
---|
|-7-7-7777-----||-3-3-3333-----4-|-7-7-7777-----|-3-3-3333/151515151515|
|-------------------||---------------------|-------------------|--------------
--------|
|-------------------||----------------------|------------------|--------------
--------|

chours 1

|--------------------|--------------|
|--------------------|--------------|
|-3-3-----5-5-----|-3---------5-|
|-----3-3-----5-5-|----2-3-5---|

chours 2 and 3

|--------------------|---------------------|--------------------|-------------
---------|
|--------------------|---------------------|--------------------|-------------
---------|
|-3-3-----5-5-----|-3-5-3-5-------5-|-3-3-----5-5-----|-3-5-3-5--------5-|
|-----3-3-----5-5-|-----------2-3-5---|-----3-3-----5-5-|-----------2-3-5---|

Solo
|-------------------------------------------------------|
|------------------------------------------------------|
|----8----------87------8----10------108---87--|
|-8---10-6--8--10--8---10----810----88----8-|

|-----------------------------|
|-----------------------------|
|-------2-----3----4-----5-|
|-1-1---2-2--3-3---4-4---|
|------------------------------|
|------------------------------|
|-------2-----3-----4-----5----|
|-1-1---2-2--3-3---4-4---------|
|-------------------------------|
|-------------------------------|
|------2-----3-------4-----5----|
|-1-1---2-2---3-3---4-4---------|

different part to 3rd pre-chour
|-------------4-5-||--------------5-4----|-------------4-5-|----------------------|
|-7-7-7777--------||-3-3-3333-----4------|-7-7-7777--------|-3-3-3333-------------|
|-----------------||---------------------|-----------------|--------------431-----|
|-----------------||---------------------|-----------------|-------------2-----431|
thats it 
if you found any mistakes send it to me at Enemyoffline@aol.com
Comments