Red Hot Chili Peppers - Californication Chords & Tabs

 

Californication Chords & Tabs

Red Hot Chili Peppers Chords & Tabs

Version: 7 Type: Bass Tab 0 ratings
1 star 2 stars 3 stars 4 stars 5 stars
comments

Californication Bass Tab

   
I don't actually play the bass. I play electric but I learnt it off
my friend Ben. I'm tabbing this because none of the tabs for this are right.

Intro/ Verse

   Part A

G:]---9-9-7h9------7-7---------------------------[
D:]-7--------10--------10------------------------[
A:]--------------8-------------------------------[
E:]----------------------------------------------[

I don't know how many times you play this it might be 8 or so.

  Part B

G:]--------------------------------------------[
D:]--------------------------------------------[
A:]-3-3-3-3---------------5--5-5---------------[
E:]--------3-3-3-3--1-1-1----------------------[

  Bridge
[ Tab from: http://www.guitartabs.cc/tabs/r/red_hot_chili_peppers/californication_btab_ver_7.html ]
G:]---------------------------------------------------------9-7---------[
D:]-7-7-7-7-7-7-9-10---------10-9---7-7-7-7-7-7-9-10-----10-----10-9----[
A:]------------------8-8-8-8-----10------------------8-8----------------[
E:]---------------------------------------------------------------------[

   Chorus

G:]----------------------------------------------[
D:]----------------------------------------------[
A:]-3-3-3-3---------5----------------------------[
E:]---------3-3-3-1---5--5-5-5-5-----------------[

  Solo

   Part A

G:]----------------------------------------------[
D:]----------------------------------------------[
A:]-3-7-----3-7----------------------------------[
E:]-----5-3-----7-5------------------------------[

  Part B

G:]----------------------------------------------[
D:]----------------------------------------------[
A:]-55-44-22-00-22-00--0-----0-------------------[
E:]------------------22--22-2-2-00---------------[

Tabbed By Sam Smith ( My Bands name is Caution and we rule )
P.s Tom Brollo STINX!
Comments