Red Hot Chili Peppers - Californication Chords & Tabs

 

Californication Chords & Tabs

Red Hot Chili Peppers Chords & Tabs

Version: 3 Type: Bass Tab 13 ratings
1 star 2 stars 3 stars 4 stars 5 stars
comments

Californication Bass Tab

This is DEFINATELY the correct one, ignore the other one.

MAIN RIFF
-------9--9--7-h9-p7------------7--7--5---
-7--7----------------10-------------------
--------------------------8--8------------
------------------------------------------

-------9--9--7-h9-p7------------10-10-7---
-7--7----------------10-------------------
--------------------------8--8------------
------------------------------------------

VERSE ENDING
---------------------------------------
---------------------------------------
-3-3-3-3--------------------5-555-55---
----------3-3-3-3--1-1-1-1-------------

BRIDGE
---------------------------------------------
-7--7-7-7---7--7--9-10-----------------9-10--
------------------------8--8-8--8--8-8-------
---------------------------------------------

-----------------------------------------------
-7--7-7-7---7--7--9-10-----------------10-9----
------------------------8--8-8--8--8-8------10-
-----------------------------------------------
[ Tab from: http://www.guitartabs.cc/tabs/r/red_hot_chili_peppers/californication_btab_ver_3.html ]
ALTERNATIVE BRIDGE ENDINGS
-----5/9\\7--------
-----------10-9---
-8-8--------------
------------------

--------------
-----9--------
-8-8---10-9---
--------------

-----------------------------
-----------------------------
-8--8-8-7--7-----------------
-------------10--10-8-7--5---

CHORUS
-------------------------------
-------------------------------
-3--3--------5--5--5h7---------
-------3--3-------------5--5---

-----------------------
-----------------------
-3-5*-3-----2-3-5--5-5-
------=-5-3------------ *- this is sometimes missed out

ADJOINING CHORUS
-------7--------7-
-----7---7----7---
-5-5-------5------
------------------

SOLO
----------11-------------
-------------------------
--9---9------9---5---5--5
-------------------------

----------11---------------------
---------------------------------
--9---9------9---5---5--5--5-55--
---------------------------------

------------7----------------
-----9----7-------7-----2----
---9----5-------7-----2------
-7------------5-----0--------

By Luke J
THIS IS 99% RIGHT! If you don\'t belive me,
watch the videos. BYE!



Comments