Red Hot Chili Peppers - Californication Chords & Tabs

 

Californication Chords & Tabs

Red Hot Chili Peppers Chords & Tabs

Version: 2 Type: Bass Tab 0 ratings
1 star 2 stars 3 stars 4 stars 5 stars
comments

Californication Bass Tab

   
Red Hot Chili Peppers
Song: Californication
Album: Californication
Tabbed by: Michael Tan 
E-mail: mtspoon@hotmail.com

I know it is not 100% accurate but it is better than some tabs that say that they are 100% accurate. Corrections are welcome if you have any please e-mail me.




Bass
Am                                          F
[ Tab from: http://www.guitartabs.cc/tabs/r/red_hot_chili_peppers/californication_btab_ver_2.html ]
G-------------------------------------------------------------------
D---------2---2---2--0h2-----------------0----0----0----------
A---0--------------------------3----------------------------3-----
E--------------------------------------1----------------------------



Prechorus

Bass
Am                                  F

G-----------------------------------------------------
D-----------------------------------------------------
A---0--0--0-----0--2--3------------------3--2----
E-------------------------------1--1--1------------3 

Comments