Red Hot Chili Peppers - Californication Chords & Tabs

 

Californication Chords & Tabs

Red Hot Chili Peppers Chords & Tabs

Version: 1 Type: Bass Tab 0 ratings
1 star 2 stars 3 stars 4 stars 5 stars
comments

Californication Bass Tab

g|-----4-5----------------------------
d|---2------2p0h2p0-------------5/7--5
a|-0----------------2---------3-------
e|-------------------------1----------
[ Tab from: http://www.guitartabs.cc/tabs/r/red_hot_chili_peppers/californication_btab.html ]
g|-----4-5-----------------------------
d|---2------2p0h2p0-------------5-3-3-0
a|-0----------------2---------3--------
e|-------------------------1-----------

soz but this is the intro and its all i know

Comments