Red Hot Chili Peppers - Cabron Chords & Tabs

 

Cabron Chords & Tabs

Red Hot Chili Peppers Chords & Tabs

Version: 9 Type: Tab 0 ratings
1 star 2 stars 3 stars 4 stars 5 stars
comments

Cabron Tab

   
#----------------------------------PLEASE NOTE---------------------------------#
#This file is the author's own work and represents their interpretation of the #
#song. You may only use this file for private study, scholarship, or research. #
#------------------------------------------------------------------------------#
CABRON
As recorded by Red Hot Chili Peppers
(From the 2002 Album BY THE WAY)
	Words and Music by Red Hot Chili PeppersArranged by Aidan Hampson

This the 100% correct version of this song.

Gtr I (E A D G B E) - 'Guitar 1'
Gtr II (E A D G B E) - 'Guitar 2'
Gtr III (E A D G B E) - 'Slide Guitar 1'
Gtr IV (E A D G B E) - 'Slide Guitar 2'
 Intro
  Moderate Rock Q=86
  G            Em          G            Em
 4/4
  Gtr I
|-^10--------|-^7--------|-^10--------|-^7----|
|-^12--------|-^8--------|-^12--------|-^8----|
|-^-0--------|-^0--------|-^-0--------|-^0----|
|-^-0--------|-----------|-^-0--------|-------|
|------------|-----------|------------|-------|
|------------|-^0--------|------------|-^0----|


  Q=105                               Q=114
  C                                D
                                           Gtrs I, II
|---0-----0-----0---0-----0------|-^2--------------||
|-----1-----1---------1-----1-0--|-^3--------------||
|-------------0---------------0--|-^2------4-2-0---||
|-------2---------------2--------|-^0------------4-||
|-3---------------3--------------|-----------------||
|--------------------------------|-----------------||


  $
  G                           Em
|-----3-3-3-(3)---3---------|-----0-0-0-(0)---0---------|
|-----0-0-0-(0)---0---------|-----0-0-0-(0)---0---------|
|-0-0-0-0-0-(0)-0-0-2-0-----|---0-0-0-0-(0)-0-0-4-2-0---|
|---0-0-0-0-(0)-0-0-----4-0-|---2-2-2-2-(2)-2-2-------4-|
|---2-2-2-2-(2)-2-2---------|-2-2-2-2-2-(2)-2-2---------|
|---3-3-3-3-(3)-3-3---------|---0-0-0-0-(0)-0-0---------|


  G                           Em
|-----3-3-3-(3)---3---------|-----0-0-0-(0)---0---------||
|-----0-0-0-(0)---0---------|-----0-0-0-(0)---0---------||
|-0-0-0-0-0-(0)-0-0-2-0-----|---0-0-0-0-(0)-0-0-4-2-0---||
|---0-0-0-0-(0)-0-0-----4-0-|---2-2-2-2-(2)-2-2-------4-||
|---2-2-2-2-(2)-2-2---------|-2-2-2-2-2-(2)-2-2---------||
|---3-3-3-3-(3)-3-3---------|---0-0-0-0-(0)-0-0---------||


 Chorus
  G                           Em
|-----3-3-3-(3)---3---------|-----0-0-0-(0)---0---------|
|-----0-0-0-(0)---0---------|-----0-0-0-(0)---0---------|
|-0-0-0-0-0-(0)-0-0-2-0-----|---0-0-0-0-(0)-0-0-4-2-0---|
|---0-0-0-0-(0)-0-0-----4-0-|---2-2-2-2-(2)-2-2-------4-|
|---2-2-2-2-(2)-2-2---------|-2-2-2-2-2-(2)-2-2---------|
|---3-3-3-3-(3)-3-3---------|---0-0-0-0-(0)-0-0---------|


  G                           Em
|-----3-3-3-(3)---3---------|-----0-0-0-(0)---0---------||
|-----0-0-0-(0)---0---------|-----0-0-0-(0)---0---------||
|-0-0-0-0-0-(0)-0-0-2-0-----|---0-0-0-0-(0)-0-0-4-2-0---||
|---0-0-0-0-(0)-0-0-----4-0-|---2-2-2-2-(2)-2-2-------4-||
|---2-2-2-2-(2)-2-2---------|-2-2-2-2-2-(2)-2-2---------||
|---3-3-3-3-(3)-3-3---------|---0-0-0-0-(0)-0-0---------||


   Verse
    G
||------3-3-3-(3)---3---------|
||o-----0-0-0-(0)---0---------|
||--0-0-0-0-0-(0)-0-0-2-0-----|
||----0-0-0-0-(0)-0-0-----4-0-|
||o---2-2-2-2-(2)-2-2---------|
||----3-3-3-3-(3)-3-3---------|


  1.                            2.
  Em                            Em
|-----0-0-0-(0)---0----------||-----0-0-0-(0)---0-0-0-0-|
|-----0-0-0-(0)---0---------o||-----0-0-0-(0)---0-0-0-0-|
|---0-0-0-0-(0)-0-0-4-2-0----||---0-0-0-0-(0)-0-0-0-0-0-|
|---2-2-2-2-(2)-2-2-------4--||---2-2-2-2-(2)-2-2-2-2-2-|
|-2-2-2-2-2-(2)-2-2---------o||-2-2-2-2-2-(2)-2-2-2-2-2-|
|---0-0-0-0-(0)-0-0----------||---0-0-0-0-(0)-0-0-0-0-0-|


  C                               D
|---0-0-(0)-0-0---0-0-(0)-0-0---|---2-2-(2)-2-2---2-2-(2)-2-2---||
|---1-1-(1)-1-1---1-1-(1)-1-1---|---3-3-(3)-3-3---3-3-(3)-3-3---||
|---0-0-(0)-0-0---0-0-(0)-0-0-0-|---2-2-(2)-2-2---2-2-(2)-2-2-2-||
|---2-2-(2)-2-2---2-2-(2)-2-2-2-|-0-0-0-(0)-0-0-0-0-0-(0)-0-0-0-||
|-3-3-3-(3)-3-3-3-3-3-(3)-3-3-3-|-------------------------------||
|-------------------------------|-------------------------------||


   Bridge
    G                                       Em
    Gtr I
||--10-10-(10)-10-10-(10)-10-10-10-8-7----|-7-7--7--7-7-(7)-7-7-----------||
||o-12-12-(12)-12-12-(12)-12-12--------10-|-8-8--8--8-8-(8)-8-8-10-8-7---o||
||---0--0--(0)--0--0--(0)--0--0-----------|-0-0-(0)-0-0-(0)-0-0--------9--||
||---0--0--(0)--0--0--(0)--0--0-----------|-------------------------------||
||o---------------------------------------|------------------------------o||
||----------------------------------------|-------------------------------||
|
|   Gtr II
||---3------3---3--3--(3)-----3--3---3--3-|-0----0--0-0-(0)---0--0---0-0--||
||o--0--3---0---0--0--(0)-----0--0---0--0-|-0----0--0-0-(0)---0--0---0-0-o||
||---0--0---0---0--0--(0)--0--0--0---0--0-|-0-0--0--0-0-(0)-0-0--0---0-0--||
||---0--0---0---0--0--(0)--0--0--0---0--0-|-2-2--2--2-2-(2)-2-2--2---2-2--||
||o--2--2---2---2--2--(2)--2--2--2---2--2-|-2-2--2--2-2-(2)-2-2--2---2-2-o||
||---3--3---3---3--3--(3)--3--3--3---3--3-|-0-0--0--0-0-(0)-0-0--0---0-0--||


  C                               D
  Gtrs I, II
|---0-0-(0)-0-0---0-0-(0)-0-0---|---2-2-(2)-2-2---2-2-(2)-2-2---|
|---1-1-(1)-1-1---1-1-(1)-1-1---|---3-3-(3)-3-3---3-3-(3)-3-3---|
|---0-0-(0)-0-0---0-0-(0)-0-0-0-|---2-2-(2)-2-2---2-2-(2)-2-2-2-|
|---2-2-(2)-2-2---2-2-(2)-2-2-2-|-0-0-0-(0)-0-0-0-0-0-(0)-0-0-0-|
|-3-3-3-(3)-3-3-3-3-3-(3)-3-3-3-|-------------------------------|
|-------------------------------|-------------------------------|


    G
    Gtr I
||--10-10-10-(10)-10-10---12----12-14-(14)-14-14---|
||o-12-12-12-(12)-12-12---12----12-12-(12)-12-12---|
||---0--0--0--(0)--0--0----0-----0--0--(0)--0--0---|
||-------------------------------------------------|
||o------------------------------------------------|
||-------------------------------------------------|
|
|   Gtr II
||---3---------3---3----3-(3)----3------3------3-3-|
||o--0--3------0---0----0-(0)----0------0------0-0-|
||---0--0------0---0----0-(0)-0--0------0------0-0-|
||---0--0------0---0----0-(0)-0--0------0------0-0-|
||o--2--2------2---2----2-(2)-2--2------2------2-2-|
||---3--3------3---3----3-(3)-3--3------3------3-3-|


  Em
|-12-12-12-(12)-12-12----7----7-7-(7)-7-7-----||
|-12-12-12-(12)-12-12----8----8-8-(8)-8-8----o||
|--0--0--0--(0)--0--0----0----0-0-(0)-0-0-----||
|---------------------------------------------||
|--------------------------------------------o||
|---------------------------------------------||
|
|--0---------0---0----0-(0)---0----0----0-0---||
|--0---------0---0----0-(0)---0----0----0-0--o||
|--0--0------0---0----0-(0)-0-0----0----0-0---||
|--2--2------2---2----2-(2)-2-2----2----2-2---||
|--2--2------2---2----2-(2)-2-2----2----2-2--o||
|--0--0------0---0----0-(0)-0-0----0----0-0---||


  C                               D
  Gtrs I, II
|---0-0-(0)-0-0---0-0-(0)-0-0---|---2-2-(2)-2-2---2-2-(2)-2-2---|
|---1-1-(1)-1-1---1-1-(1)-1-1---|---3-3-(3)-3-3---3-3-(3)-3-3---|
|---0-0-(0)-0-0---0-0-(0)-0-0-0-|---2-2-(2)-2-2---2-2-(2)-2-2-2-|
|---2-2-(2)-2-2---2-2-(2)-2-2-2-|-0-0-0-(0)-0-0-0-0-0-(0)-0-0-0-|
|-3-3-3-(3)-3-3-3-3-3-(3)-3-3-3-|-------------------------------|
|-------------------------------|-------------------------------|


                       
  C                               D
|---0-0-(0)-0-0---0-0-(0)-0-0---|---2-2-(2)-2-2---2-2-(2)-2-2----||
|---1-1-(1)-1-1---1-1-(1)-1-1---|---3-3-(3)-3-3---3-3-(3)-3-3----||
|---0-0-(0)-0-0---0-0-(0)-0-0-0-|---2-2-(2)-2-2---2-2-(2)-2-2-2--||
|---2-2-(2)-2-2---2-2-(2)-2-2-2-|-0-0-0-(0)-0-0-0-0-0-(0)-0-0-0--||
|-3-3-3-(3)-3-3-3-3-3-(3)-3-3-3-|--------------------------------||
|-------------------------------|--------------------------------||


  &
  D
|---2-2-(2)-2-2---2-2-(2)-2--2----||
|---3-3-(3)-3-3---3-3-(3)-3--3----||
|---2-2-(2)-2-2---2-2-(2)-2--2--2-||
|-0-0-0-(0)-0-0-0-0-0-(0)-0--0--0-||
|---------------------------------||
|---------------------------------||
|
| Gtr III
|----------------------7----(7)s==||
|---------------------------------||
|---------------------------------||
|---------------------------------||
|---------------------------------||
|---------------------------------||


 Guitar Solo
  G                                Em
|------3-3-3-(3)---3-------------|------0-0-0-(0)---0-------------|
|------0-0-0-(0)---0-------------|------0-0-0-(0)---0-------------|
|--0-0-0-0-0-(0)-0-0--2-0--------|----0-0-0-0-(0)-0-0-4-2--0------|
|----0-0-0-0-(0)-0-0--------4--0-|----2-2-2-2-(2)-2-2---------4---|
|----2-2-2-2-(2)-2-2-------------|--2-2-2-2-2-(2)-2-2-------------|
|----3-3-3-3-(3)-3-3-------------|----0-0-0-0-(0)-0-0-------------|
|
|-14-----------------------------|--------------------7---(7)s====|
|--------------------14---(14)s==|=12-----------------------------|
|--------------------------------|--------------------------------|
|--------------------------------|--------------------------------|
|--------------------------------|--------------------------------|
|--------------------------------|--------------------------------|


  G
|------3-3-3-(3)---3-------------|
|------0-0-0-(0)---0-------------|
|--0-0-0-0-0-(0)-0-0--2-0--------|
|----0-0-0-0-(0)-0-0--------4--0-|
|----2-2-2-2-(2)-2-2-------------|
|----3-3-3-3-(3)-3-3-------------|
|
|-14-----------------------------|
|--------------------14---(14)s==|
|--------------------------------|
|--------------------------------|
|--------------------------------|
|--------------------------------|
|
| Gtr IV
|--------------------------------|
|--------------------------------|
|--------------------------------|
|--------------------------------|
|--------------------------------|
|--------------------------------|

[ Tab from: http://www.guitartabs.cc/tabs/r/red_hot_chili_peppers/cabron_tab_ver_9.html ]
  Em                             G
|------0-0-0-(0)---0-----------|------3-3-3-(3)---3--------------|
|------0-0-0-(0)---0-----------|------0-0-0-(0)---0--------------|
|----0-0-0-0-(0)-0-0-4-2--0----|--0-0-0-0-0-(0)-0-0---2-0--------|
|----2-2-2-2-(2)-2-2---------4-|----0-0-0-0-(0)-0-0---------4--0-|
|--2-2-2-2-2-(2)-2-2-----------|----2-2-2-2-(2)-2-2--------------|
|----0-0-0-0-(0)-0-0-----------|----3-3-3-3-(3)-3-3--------------|
|
|--------------------7---(7)s==|=14------------------------------|
|-12---------------------------|---------------------14---(14)s==|
|------------------------------|---------------------------------|
|------------------------------|---------------------------------|
|------------------------------|---------------------------------|
|------------------------------|---------------------------------|
|
|------------------------------|---------------------------------|
|--------------------7---(7)s==|=10-----------------/10---(10)s==|
|------------------------------|---------------------------------|
|------------------------------|---------------------------------|
|------------------------------|---------------------------------|
|------------------------------|---------------------------------|


  Em                             G
|------0-0-0-(0)---0-----------|------3-3-3-(3)---3--------------|
|------0-0-0-(0)---0-----------|------0-0-0-(0)---0--------------|
|----0-0-0-0-(0)-0-0-4-2--0----|--0-0-0-0-0-(0)-0-0---2-0--------|
|----2-2-2-2-(2)-2-2---------4-|----0-0-0-0-(0)-0-0---------4--0-|
|--2-2-2-2-2-(2)-2-2-----------|----2-2-2-2-(2)-2-2--------------|
|----0-0-0-0-(0)-0-0-----------|----3-3-3-3-(3)-3-3--------------|
|
|--------------------7---(7)s==|=14------------------------------|
|-12---------------------------|---------------------14---(14)s==|
|------------------------------|---------------------------------|
|------------------------------|---------------------------------|
|------------------------------|---------------------------------|
|------------------------------|---------------------------------|
|
|------------------------------|---------------------------------|
|--7-----------------7---(7)s==|=10-----------------/10---(10)s==|
|------------------------------|---------------------------------|
|------------------------------|---------------------------------|
|------------------------------|---------------------------------|
|------------------------------|---------------------------------|


  Em
|------0-0-0-(0)---0--0---0--0--||
|------0-0-0-(0)---0--0---0--0--||
|----0-0-0-0-(0)-0-0--0---0--0--||
|----2-2-2-2-(2)-2-2--2---2--2--||
|--2-2-2-2-2-(2)-2-2--2---2--2--||
|----0-0-0-0-(0)-0-0--0---0--0--||
|
|-------------------------------||
|-12-----------------12-(12)s===||
|-------------------------------||
|-------------------------------||
|-------------------------------||
|-------------------------------||
|
|-------------------------------||
|--7------------------7--(7)s===||
|-------------------------------||
|-------------------------------||
|-------------------------------||
|-------------------------------||


 Bridge
  C                               D
|---0-0-(0)-0-0---0-0-(0)-0-0---|---2-2-(2)-2-2---2-2-(2)-2-2---|
|---1-1-(1)-1-1---1-1-(1)-1-1---|---3-3-(3)-3-3---3-3-(3)-3-3---|
|---0-0-(0)-0-0---0-0-(0)-0-0-0-|---2-2-(2)-2-2---2-2-(2)-2-2-2-|
|---2-2-(2)-2-2---2-2-(2)-2-2-2-|-0-0-0-(0)-0-0-0-0-0-(0)-0-0-0-|
|-3-3-3-(3)-3-3-3-3-3-(3)-3-3-3-|-------------------------------|
|-------------------------------|-------------------------------|
|
|-------------------------------|-------------------------------|
|-8-----------------------------|-------------------------------|
|-------------------------------|-------------------------------|
|-------------------------------|-------------------------------|
|-------------------------------|-------------------------------|
|-------------------------------|-------------------------------|
|
|-------------------------------|-------------------------------|
|-3-----------------------------|-------------------------------|
|-------------------------------|-------------------------------|
|-------------------------------|-------------------------------|
|-------------------------------|-------------------------------|
|-------------------------------|-------------------------------|


  C                               D
|---0-0-(0)-0-0---0-0-(0)-0-0---|---2-2-(2)-2-2---2-2-(2)-2-2------||
|---1-1-(1)-1-1---1-1-(1)-1-1---|---3-3-(3)-3-3---3-3-(3)-3-3------||
|---0-0-(0)-0-0---0-0-(0)-0-0-0-|---2-2-(2)-2-2---2-2-(2)-2-2-2----||
|---2-2-(2)-2-2---2-2-(2)-2-2-2-|-0-0-0-(0)-0-0-0-0-0-(0)-0-0-0----||
|-3-3-3-(3)-3-3-3-3-3-(3)-3-3-3-|----------------------------------||
|-------------------------------|----------------------------------||
|
|-------------------------------|----------------------------------||
|-------------------------------|----------------------------------||
|-------------------------------|----------------------------------||
|-------------------------------|----------------------------------||
|-------------------------------|----------------------------------||
|-------------------------------|----------------------------------||
|
|-------------------------------|----------------------------------||
|-------------------------------|----------------------------------||
|-------------------------------|----------------------------------||
|-------------------------------|----------------------------------||
|-------------------------------|----------------------------------||
|-------------------------------|----------------------------------||


   Chorus
    G
||--3-3---3-3---3-3---3-3---|
||o-0-0---0-0-0-0-0---0-0-0-|
||--0-0-0-0-0-0-0-0-0-0-0-0-|
||--0-0-0-0-0-0-0-0-0-0-0-0-|
||o-2-2-2-2-2-2-2-2-2-2-2-2-|
||--3-3-3-3-3-3-3-3-3-3-3-3-|


  Em                        G
|-0-0---0-0---0-0---0-0---|-3-3---3-3---3-3---3-3-----|
|-0-0---0-0-0-0-0---0-0-0-|-0-0---0-0-0-0-0---0-0-0---|
|-0-0-0-0-0-0-0-0-0-0-0-0-|-0-0-0-0-0-0-0-0-0-0-0-0---|
|-2-2-2-2-2-2-2-2-2-2-2-2-|-0-0-0-0-0-0-0-0-0-0-0-0---|
|-2-2-2-2-2-2-2-2-2-2-2-2-|-2-2-2-2-2-2-2-2-2-2-2-2---|
|-0-0-0-0-0-0-0-0-0-0-0-0-|-3-3-3-3-3-3-3-3-3-3-3-3---|


  1.                          2.
  Em                          Em
|-0-0---0-0---0-0---0-0----||-0-0---0-0---0-0---0--0----||
|-0-0---0-0-0-0-0---0-0-0-o||-0-0---0-0-0-0-0---0--0--0-||
|-0-0-0-0-0-0-0-0-0-0-0-0--||-0-0-0-0-0-0-0-0-0-0--0--0-||
|-2-2-2-2-2-2-2-2-2-2-2-2--||-2-2-2-2-2-2-2-2-2-2--2--2-||
|-2-2-2-2-2-2-2-2-2-2-2-2-o||-2-2-2-2-2-2-2-2-2-2--2--2-||
|-0-0-0-0-0-0-0-0-0-0-0-0--||-0-0-0-0-0-0-0-0-0-0--0--0-||
|
| Gtr III
|--------------------------||-------------------7-(7)s==||
|-------------------------o||---------------------------||
|--------------------------||---------------------------||
|--------------------------||---------------------------||
|-------------------------o||---------------------------||
|--------------------------||---------------------------||
|
| Gtr IV
|--------------------------||---------------------------||
|-------------------------o||-------------------7-(7)s==||
|--------------------------||---------------------------||
|--------------------------||---------------------------||
|-------------------------o||---------------------------||
|--------------------------||---------------------------||


   Outro
    G                               Em
                                                                4x
||---3-3---3-3---3-3-----3---3----|--0-0---0-0---0-0---0--0-----||
||o--0-0---0-0-0-0-0-----0---0--0-|--0-0---0-0-0-0-0---0--0--0-o||
||---0-0-0-0-0-0-0-0-0---0---0--0-|--0-0-0-0-0-0-0-0-0-0--0--0--||
||---0-0-0-0-0-0-0-0-0---0---0--0-|--2-2-2-2-2-2-2-2-2-2--2--2--||
||o--2-2-2-2-2-2-2-2-2---2---2--2-|--2-2-2-2-2-2-2-2-2-2--2--2-o||
||---3-3-3-3-3-3-3-3-3---3---3--3-|--0-0-0-0-0-0-0-0-0-0--0--0--||
|
|                                                               4x
||--14----------------------------|--------------------7-(7)----||
||o---------------------14-(14)s==|=12-------------------------o||
||--------------------------------|-----------------------------||
||--------------------------------|-----------------------------||
||o-------------------------------|----------------------------o||
||--------------------------------|-----------------------------||
|
|                                                               4x
||--------------------------------|-----------------------------||
||o-10-----------------/10-(10)s==|==7-----------------7-(7)---o||
||--------------------------------|-----------------------------||
||--------------------------------|-----------------------------||
||o-------------------------------|----------------------------o||
||--------------------------------|-----------------------------||


    G                               Em
                                                                4x
||---3-3---3-3---3-3-----3---3----|--0-0---0-0---0-0---0--0-----||
||o--0-0---0-0-0-0-0-----0---0--0-|--0-0---0-0-0-0-0---0--0--0-o||
||---0-0-0-0-0-0-0-0-0---0---0--0-|--0-0-0-0-0-0-0-0-0-0--0--0--||
||---0-0-0-0-0-0-0-0-0---0---0--0-|--2-2-2-2-2-2-2-2-2-2--2--2--||
||o--2-2-2-2-2-2-2-2-2---2---2--2-|--2-2-2-2-2-2-2-2-2-2--2--2-o||
||---3-3-3-3-3-3-3-3-3---3---3--3-|--0-0-0-0-0-0-0-0-0-0--0--0--||
|
|                                                               4x
||--14----------------------------|--------------------7-(7)s===||
||o---------------------14-(14)s==|=12-------------------------o||
||--------------------------------|-----------------------------||
||--------------------------------|-----------------------------||
||o-------------------------------|----------------------------o||
||--------------------------------|-----------------------------||
|
|                                                               4x
||--------------------------------|-----------------------------||
||o-10-----------------/10-(10)s==|==7-----------------7-(7)s==o||
||--------------------------------|-----------------------------||
||--------------------------------|-----------------------------||
||o-------------------------------|----------------------------o||
||--------------------------------|-----------------------------||


  G
|--3--------|--(3)----*|
|--0--------|--(0)----*|
|--0--------|--(0)----*|
|--0--------|--(0)----*|
|--2--------|--(2)----*|
|--3--------|--(3)----*|
|
|-14--------|-(14)----*|
|-----------|---------*|
|-----------|---------*|
|-----------|---------*|
|-----------|---------*|
|-----------|---------*|
|
|-----------|---------*|
|-10--------|-(10)----*|
|-----------|---------*|
|-----------|---------*|
|-----------|---------*|
|-----------|---------*|


any question nobbru@libero.it
Comments