Red Hot Chili Peppers - Cabron Chords & Tabs

 

Cabron Chords & Tabs

Red Hot Chili Peppers Chords & Tabs

Version: 7 Type: Tab 0 ratings
1 star 2 stars 3 stars 4 stars 5 stars
comments

Cabron Tab

i think this is it cos its the sort of thing john would do. great album

E-2---------0--------2--------0-------
B-3---------1--------3--------1-------
G-2---------0--------2--------0-------
D-0---------2--------0--------2-------
A-----------3-----------------3-------
E-------------------------------------

[ Tab from: http://www.guitartabs.cc/tabs/r/red_hot_chili_peppers/cabron_tab_ver_7.html ]
E-------------------------
B-----------1-------------
G-------0-----0---------0-
D---2-----2-----2---2-----
A-3---3-----------3---3---
E-------------------------

E---------------2-2-2-2-----------0-0-0-0-----------
B---------------3-3-3-3-3-2-------1-1-1-1-----------
G-3-2-----------2-2-2-2-----3-2---0-0-0-0-3-2-------
D-----3-2-------0-0-0-0---------0-2-2-2-2-----3-2---
A---------0-----------------------3-3-3-3---------0-
E---------------------------------------------------
Comments