Red Hot Chili Peppers - Cabron Chords & Tabs

 

Cabron Chords & Tabs

Red Hot Chili Peppers Chords & Tabs

Version: 5 Type: Tab 0 ratings
1 star 2 stars 3 stars 4 stars 5 stars
comments

Cabron Tab

   
Red Hot Chilli Peppers
"Cabron" from "By The Way"

~its a really nice song despite the title * you gotta know spanish to understand*~


Standard tuning


Intro
--[-10----7-]-----3----5--
--[-10----7-]-----3----5--
--[-11----7-]-X2--4----6--
--[-12----9-]-----5----7--
--[-12----9-]-----5----5--
--[-10----7-]-----3----5--
    D     Bb     G    A

finger pick the G    (top 4 strings only)
Intro to Lyrics and lyrics
--------------------10--------------------7-
--------------------10--------------------7-
-----11--9----------11--------------------7-
------------12--11--12----12--11--9-------9-
--------------------12---------------12---9-
--------------------10--------------------7-

Chorus
[ Tab from: http://www.guitartabs.cc/tabs/r/red_hot_chili_peppers/cabron_tab_ver_5.html ]
-3-----------------------5---------------------------10---------------7---
-3-----------------------5---------------------------10---------------7--
-4-----------------------5---------------------------11---------------7--
-5-----------------------7---------------------------12---------------9-
-5-----------------------7---------------------------12---------------9-
-3-----------------------5---------------------------10---------------7---
I am small but I am strong, I will get it on with you, If you want me to
                                                       what else can i do ?

The second part of the chorus (when it reapeats).. play the first two chords twice...
youll get the hang of it..
the song sounds alot harder than it is...
but its really nice says i


the little solo thing 
------14---------------
--15---------14--12----
-----------------------
-----------------------
-----------------------
-----------------------




Comments