Red Hot Chili Peppers - By The Way Chords & Tabs

 

By The Way Chords & Tabs

Red Hot Chili Peppers Chords & Tabs

Version: 4 Type: Tab 1 rating
1 star 2 stars 3 stars 4 stars 5 stars
comments

By The Way Tab

   
artist: Red Hot Chili Peppers
song name: By The Way
album: Town & Country
tabbed by: frank evers (frankevers@hetnetniet.nl)


   F   F/E  Am     2nd time   
|---------------/-------------
|---------------/-------------
|---------------/-----9-9-7-7-
|-10---10---7---/--7----------
|--8----7---7---/--7----------
|-----------5---/--5----------


By the way...
  F    C    Am   F    C  Am
|------8----5----------------
|------8----5------------10--
|-10---9----5----10---9---9--
|-10--10----7----10--10---7--
|--8--10----7-----8--10------
|------8----5----------------


4 measures
|------|     -8-8-
|-x-x--|     -8-8-
|-x-x--|       
|-x-x--|       
|-x-x--|        2x
|------|  etc.    


(twice as much guitar)
	    4th time
|-5-5--------8-8---|  
|-6-6--xx----8-8---|
|-7-7--xx----------|
|-7-7--xx----------| 
|-5-5--xx----------|   2x
|------------------| 
 

Standin' in line...
  F   C  Dm     F   C  Am   A#
|-8---8---5-----8---8---5---6--|
|10---8---6----10---8---5---6--|
|10---9---7----10---9---5---7--|
|10--10---7----10--10---7---8--|
|-8--10---5-----8--10---7---8--|  1x
|-----8-------------8---5---6--|

Interlude
Keep on playin' Dm.

4 measures.  4th time
|-------------8-8---|       
|-x-x---------8-8---|       
|-x-x---------------|       
|-x-x---------------|       
|-x-x---------------|   1x
|-------------------|    

  Dm	     4th time
|-5-5----------8-8---|  
|-6-6--xx-xx---8-8---|
|-7-7--xx-xx---------|
|-7-7--xx-xx---------|
|-5-5--xx-xx---------|  2x
|--------------------|
[ Tab from: http://www.guitartabs.cc/tabs/r/red_hot_chili_peppers/by_the_way_tab_ver_4.html ]
Standin' in line...			
   F   F/E  Am     F   C    Am	       
|----------------------------------------
|----------------------------------------
|-10---10---------------9-------9-9-7-7--
|-10---10---7-----10---10---7------------
|--8----7---7------8--------7------------ 
|-----------5---------------5------------

   F    C  Am     F   C     Am	
|--------------------------------|
|---------------------------10---|
|-------8--------------9-----9---|
|-10---10---7-----10---10----7---|
|--8---10---7------8-------------| 1x
|-----------5--------------------|

4 measures
  Dm	     4th time
|-5-5----------8-8---|  
|-6-6----------8-8---|
|-7-7----------------|
|-7-7----------------|
|-5-5----------------|  1x
|--------------------|

4 measures
  Dm	     4th time
|-5-5----------8-8---|  
|-6-6--xx-xx---8-8---|
|-7-7--xx-xx---------|
|-7-7--xx-xx---------|
|-5-5--xx-xx---------|  2x
|--------------------|

Standin' in line
  F   C  Dm     F   C  Am   A#
|-8---8---5-----8---8---5---6--|
|10---8---6----10---8---5---6--|
|10---9---7----10---9---5---7--|
|10--10---7----10--10---7---8--|
|-8--10---5-----8--10---7---8--|  2x
|-----8-------------8---5---6--|


  F   C   Dm    F   C   Am  A#    Dm ~
|-1---3---5-----1---3---5----6----5----|
|-1---5---6-----1---5---5----6----6----|
|-2---5---7-----2---5---5----7----7----|
|-3---5---7-----3---5---7----8----7----|
|-3---3---5-----3---3---7----8----5----|
|-1-------------1-------5----6---------|

Comments