Red Hot Chili Peppers - By The Way Chords & Tabs

 

By The Way Chords & Tabs

Red Hot Chili Peppers Chords & Tabs

Version: 14 Type: Tab 0 ratings
1 star 2 stars 3 stars 4 stars 5 stars
comments

By The Way Tab

#----------------------------------PLEASE NOTE---------------------------------#
#This file is the author's own work and represents their interpretation of the #
#song. You may only use this file for private study, scholarship, or research. #
#------------------------------------------------------------------------------#
BY THE WAY
As recorded by Red Hot Chili Peppers
(From the 2002 Album BY THE WAY)


Transcribed by David Giordano

 

 
[ Tab from: http://www.guitartabs.cc/tabs/r/red_hot_chili_peppers/by_the_way_tab_ver_14.html ]
This is the intro and the main part.
Where the x's are you have to do it more than shown.
 4/4
  Gtr I
|-------------------------|-----------------|---------------------------------*|
|-------------------------|-----------------|---------------------------------*|
|-10-10-10-10-10-10-10-10-|-5-5-5-5-5-5-5-5-|-2-2-2-2-2-2-2-2-2-2-2-2-2-2-2-2-*|
|-10-10-10-10-10-10-10-10-|-5-5-5-5-5-5-5-5-|-2-2-2-2-2-2-2-2-2-2-2-2-2-2-2-2-*|
|--8--8--8--8--8--8--8--8-|-3-3-3-3-3-3-3-3-|-0-0-0-0-0-0-0-0-0-0-0-0-0-0-0-0-*|
|-------------------------|-----------------|---------------------------------*|


|------------10-10--------10-10--------10-10-------10-10----------------------------|
|------------10-10--------10-10--------10-10-------10-10--------13--13--13--13-13---|
|------------10-10--------10-10--------10-10-------10-10----------------------------|
|-x-x-x-x-x---------x-x-x--------x-x-x-------x-x-x--------x-x-x---------------------|
|-x-x-x-x-x---------x-x-x--------x-x-x-------x-x-x--------x-x-x---------------------|
|-x-x-x-x-x---------x-x-x--------x-x-x-------x-x-x--------x-x-x---------------------|
Comments