Red Hot Chili Peppers - By The Way Chords & Tabs

 

By The Way Chords & Tabs

Red Hot Chili Peppers Chords & Tabs

Version: 5 Type: Bass Tab 0 ratings
1 star 2 stars 3 stars 4 stars 5 stars
comments

By The Way Bass Tab

   
Tabbed Louis P

Artist: RHCP
Album:  By the Way
Song:   by the way

g---------------------------------------------------------------------
d-15-15-15-15-15-15-15-15-14-14-14-14-14-14-14-14---------------------
a---------------------------------------------------12-12-12-12-12-12-
e---------------------------------------------------------------------
                                 Standing in line........
g--------------------------------10-10-10-10-10-10-10-10--------------
d-12-12-12-12-12-12-12-12-12-12---------------------------10-10-10-10-
a---------------------------------------------------------------------
e---------------------------------------------------------------------
             
g--------------14-14-14-14--14-14-14-14--14-14-14-14--14-14-14-14-----
d-10-10-10-10---------------------------------------------------------
a---------------------------------------------------------------------
e---------------------------------------------------------------------

g---------------------------------------------------------------------
d-3-3-3-3-3-3-3-3-----------------------------------------------------
a------------------3-3-3-3-3-3-3-3-0-0-0-0-0-0-0-0-0-0-0-0-0-0-0-0----
e---------------------------------------------------------------------

g-14-14-14-14-14-14-14-14-17-17-17-17-17-17-17-17-15-15-15-15-15-15-15
d---------------------------------------------------------------------
a---------------------------------------------------------------------
e---------------------------------------------------------------------

g-15-15-15-15-15-15-15-15-15--||
d-----------------------------||
a-----------------------------|| 
e-----------------------------||

Verse
[ Tab from: http://www.guitartabs.cc/tabs/r/red_hot_chili_peppers/by_the_way_btab_ver_5.html ]
g---------------------------------------------------------------------
d----------3---------------------3------------------------3-----------
a-----3h5-----x3h5-3h5------3h5-----x3h5--------------3h5----x3h5-3h5-
e-0-0-------------------0-0---------------3h5-0--0-0------------------

g-------------------------- ||Repeat 4 x's 
d--------------------------*||
a-----3h5---5555566666-----*||
e-0-0---------------------- ||

Chorus

g---------------------------------------------------------------------
d-3--3--3-3-3-3/10--10-10-10-10-10-12--12-12-12-12-12--12--12-12--12--
a---------------------------------------------------------------------
e---------------------------------------------------------------------

g---------------------------------------------------------------------
d-3--3--3-3-3-3/10--10-10-10-10-10------------------------------------
a----------------------------------12--12-12-12-12-12--12--12-12--12--
e---------------------------------------------------------------------

Go Back to Verse and play it Four Times. And Then go To the Intro.
The Bass solo is the verse and repeat it four times.

Outro
Standing in line to see the show tonight.......
g---------------------------------------------------------------------
d-3--3--3-3-3-3/10--10-10-10-10-10-12--12-12-12-12-12--12-------------
a-----------------------------------------------------------12-10-----
e------------------------------------------------------------------12-
By the way I try to say I'd be there.
g---------------------------------------------------------------------
d-3--3--3-3-3-3/10--10-10-10-10-10------------------------------------
a----------------------------------12--12-12-12-12-12--12--12-12--12--
e---------------------------------------------------------------------

Repeat Twice And end there while the guitar and the vocals end it.
Please Rate This.
Comments