Red Hot Chili Peppers - By The Way Chords & Tabs

 

By The Way Chords & Tabs

Red Hot Chili Peppers Chords & Tabs

Version: 2 Type: Bass Tab 1 rating
1 star 2 stars 3 stars 4 stars 5 stars
comments

By The Way Bass Tab

Red Hot Chili Peppers
By The Way

Chorus
G|-10-10-10-10-10-10-10-10---9---9--9—-9--9--9--9--9--|
D|-10-10-10-10-10-10-10-10---10-10-10-10-10-10-10-10--|
A|----------------------------------------------------|
D|----------------------------------------------------|
[ Tab from: http://www.guitartabs.cc/tabs/r/red_hot_chili_peppers/by_the_way_btab_ver_2.html ]
G|----------------------|
D|--7-7-7-7-7-7-7-7-----|
A|--0-0-0-0-0-0-0-0-----|
D|----------------------|

Verse 
G|-------------------------|
D|------------33----------| *3
A|------3h5------5p3h5-----|
D|-00---------------------|

G|--------------------------|
D|--------------------------|
A|-----3h5-55-3h5-6---------| *1
D|-00----------------------|
Comments