Red Hot Chili Peppers - Blackeyed Blonde Chords & Tabs

 

Blackeyed Blonde Chords & Tabs

Red Hot Chili Peppers Chords & Tabs

Version: 4 Type: Bass Tab 0 ratings
1 star 2 stars 3 stars 4 stars 5 stars
comments

Blackeyed Blonde Bass Tab

Artist - Red Hot Chili Peppers
Song - Blackeyed Blonde
Tabbed by acidbass

This tab is almost perfect, I tabbed it from the Flea Master Sessions video,
and the chorus from the Off The Map DVD.

Intro
G|--------------------------------55----------|
D|--------------------------------------------|
A|-3h5-3h5----3h5-3h5----3h5-3h5----3h5-3h5---|
E|--------------------------------------------|

Verse (slap and pop)
G|-------x------7-5--7-5---------x------7-5--4-5--|
D|------------------------------------------------|
A|-3h5-x--3h5-x------------3h5-x--3h5-x-----------|
E|---------------x-xx-x------------------x-xx-x---|
[ Tab from: http://www.guitartabs.cc/tabs/r/red_hot_chili_peppers/blackeyed_blonde_btab_ver_4.html ]
Chorus
G|------------------------------------------------|
D|-----5h7---------------5h7--5-5---5h7-----------|
A|---------7-5--------------------7-----7-5-------|
E|-3h5---------8-5---3h5--------------------8-5---|

Bass and Guitar Solo (Slap and Pop)
G|-------x------7-5--7-5---------x------7-5--4-5--|
D|------------------------------------------------|
A|-3h5-x--3h5-x------------3h5-x--3h5-x-----------|
E|---------------x-xx-x------------------x-xx-x---|

Chorus Variation
G|-------------------------------------------------------|
D|-----8h10-----------------8h10--8-8----8h10------------|
A|----------10-8----------------------10------10-8-------|
E|-6h8-----------11-8---6h8------------------------11-8--|

Ending
G|-----------|
D|-----------|
A|-3h5--3h5--|
E|-----------|

The order is simple, and it's a great song to play!  Good luck!
Comments