Red Hot Chili Peppers - Black Cross Live Chords & Tabs

 

Black Cross Live Chords & Tabs

Red Hot Chili Peppers Chords & Tabs

Version: 1 Type: Bass Tab 0 ratings
1 star 2 stars 3 stars 4 stars 5 stars
comments

Black Cross Live Bass Tab

   
-------------------------------------------------------------------------------
                             Black Cross (Live) - Red Hot Chili Peppers
-------------------------------------------------------------------------------

This was performed at Hyde Park on the Chili's world tour 2004

Tabbed By : R Stanton
e-mail: fishfood@blueyonder.co.uk

Tuning:Standard

Here are all the riffs just play them at the right time!

Riff 1
G|---------------------------------------------------------------------------|
D|---------------------------------------------------------------------------|
A|----------6-6-6---------6-6-6----------------------------------------------|
E|--5-5-5-5-------5-5-5-5----------------------------------------------------|
[ Tab from: http://www.guitartabs.cc/tabs/r/red_hot_chili_peppers/black_cross_live_btab.html ]
Riff 2
G|---------------------------------------------------------------------------|
D|---------------------------------------------------------------------------|
A|-----------10-9-8-7--------------------------------------------------------|
E|--10-9-8-7-----------5-5-x--5-5-x------------------------------------------|

Riff 3
G|---------------------------------------------------------------------------|
D|---------------------------------------------------------------------------|
A|-------5--6--6----3--6--5-5------------------------------------------------|
E|---5-----------------------------------------------------------------------|



| /  slide up
| \  slide down
| h  hammer-on
| p  pull-off
| ~  vibrato
| +  harmonic
| x  Mute note
Comments