Red Hot Chili Peppers - Bicycle Song Chords & Tabs

 

Bicycle Song Chords & Tabs

Red Hot Chili Peppers Chords & Tabs

Version: 1 Type: Tab 1 rating
1 star 2 stars 3 stars 4 stars 5 stars
comments

Bicycle Song Tab

   
Bicycle Song
Red Hot Chili Peppers

Tabbed by: Edward Tan (ed_rhcp15@yahoo.com)


INTRO/VERSE

	D      A  Bm
e ----------------2-2----|
B --7-7-7-7-7--2--3-3----|
G --7-7-7-7-7--2--4-4----|
D --7-7-7-7-7--2--4-4----|
A --5-5-5-5-5--0--2-2----|
E -----------------------|

	D      A  Bm
e ----------------2-2----|
B --7-7-7-7-7--2--3-3----|
G --7-7-7-7-7--2--4-4----|
D --7-7-7-7-7--2--4-4----|
A --5-5-5-5-5--0--2-2----|
E -----------------------|

	G      D  Bm
e --3-3-3-3-3-----2-2----|
B --3-3-3-3-3--7--3-3----|
G --4-4-4-4-4--7--4-4----|
D --5-5-5-5-5--7--4-4----|
A --5-5-5-5-5--5--2-2----|
E --3-3-3-3-3------------|

	G      D  Bm
e --3-3-3-3-3-----2-2----|
B --3-3-3-3-3--7--3-3----|
G --4-4-4-4-4--7--4-4----|
D --5-5-5-5-5--7--4-4----|
A --5-5-5-5-5--5--2-2----|
E --3-3-3-3-3------------|

PRE-CHORUS
   
    G	         C            D
e ---------------------------------------------------|
B --------3------------5------------7----7-8-7-------|
G ----------4--------5---5--------7---7--------7-----|
D ------5----------5------------7--------------------|
A ----5-------5--3---------3--5----------------------|
E --3------------------------------------------------|

    G	         C            D
e ---------------------------------------------------|
B --------3------------5------------7----7-8-7-------|
G ----------4--------5---5--------7---7--------7-----|
D ------5----------5------------7--------------------|
A ----5-------5--3---------3--5----------------------|
E --3------------------------------------------------|

    G	         C            D
e ---------------------------------------------------|
B --------3------------5------------7----7-8-7-------|
G ----------4--------5---5--------7---7--------7-----|
D ------5----------5------------7--------------------|
A ----5-------5--3---------3--5----------------------|
E --3------------------------------------------------|

    G	         C            D
e ---------------------------------------------------|
B --------3------------5------------7-----7----7-----|
G ----------4--------5---5--------7---7-----7---7----|
D ------5----------5------------7-------7-----7---7--|
A ----5-------5--3---------3--5----------------------|
E --3------------------------------------------------|

CHORUS
[ Tab from: http://www.guitartabs.cc/tabs/r/red_hot_chili_peppers/bicycle_song_tab.html ]
          G		   D            C	     	
e -----------------12------------7---------------------------|
B --12-12-12-12-12-12--7-7-7-7-7-7--5-5-5-5-5-5--5-5-5-5-5-5-|
G --12-12-12-12-12-12--7-7-7-7-7-7--5-5-5-5-5-5--5-5-5-5-5-5-|
D --12-12-12-12-12-----7-7-7-7-7----5-5-5-5-5-5--5-5-5-5-5-5-|
A --10-10-10-10-10-----5-5-5-5-5----3-3-3-3-3-3--3-3-3-3-3-3-|
E -----------------------------------------------------------|

          G		   D            C	     	
e -----------------12------------7---------------------------|
B --12-12-12-12-12-12--7-7-7-7-7-7--5-5-5-5-5-5--5-5-5-5-5-5-|
G --12-12-12-12-12-12--7-7-7-7-7-7--5-5-5-5-5-5--5-5-5-5-5-5-|
D --12-12-12-12-12-----7-7-7-7-7----5-5-5-5-5-5--5-5-5-5-5-5-|
A --10-10-10-10-10-----5-5-5-5-5----3-3-3-3-3-3--3-3-3-3-3-3-|
E -----------------------------------------------------------|

          G		   D            C
e -----------------12------------7---------------------------|
B --12-12-12-12-12-12--7-7-7-7-7-7--5-5-5-5-5-5--5-5-5-5-5-5-|
G --12-12-12-12-12-12--7-7-7-7-7-7--5-5-5-5-5-5--5-5-5-5-5-5-|
D --12-12-12-12-12-----7-7-7-7-7----5-5-5-5-5-5--5-5-5-5-5-5-|
A --10-10-10-10-10-----5-5-5-5-5----3-3-3-3-3-3--3-3-3-3-3-3-|
E -----------------------------------------------------------|

          G		   D          C
e -----------------12------------7-----------|
B --12-12-12-12-12-12--7-7-7-7-7-7--5--5~~~--|
G --12-12-12-12-12-12--7-7-7-7-7-7--5--5~~~--|
D --12-12-12-12-12-----7-7-7-7-7----5--5~~~--|
A --10-10-10-10-10-----5-5-5-5-5----3--3~~~--|
E -------------------------------------------|



SOLO

e -----------------------------------------------------------------|
B --7-8-7-7-----------7-8-7-7--------------------------------------|
G ----------9-7-7~~~----------9-7-7-9---7-9/11-9-7-7-9---4-7/9~~~--|
D ------------------------------------5----------------5-----------|
A -----------------------------------------------------------------|
E -----------------------------------------------------------------|

e -----------------------------------------------------------------|
B --7-8-7-7-----------7-8-7-7--------------------------------------|
G ----------9-7-7~~~----------9-7-7-9---7-9/11-9-7-7-9---4-7/9~~~--|
D ------------------------------------5----------------5-----------|
A -----------------------------------------------------------------|
E -----------------------------------------------------------------|


e --------------|
B --12-12--10-8-|
G --12-12--11-9-|
D --------------|
A --------------|
E --------------|
Comments