Red Hot Chili Peppers - Around The World Chords & Tabs

 

Around The World Chords & Tabs

Red Hot Chili Peppers Chords & Tabs

Version: 6 Type: Tab 0 ratings
1 star 2 stars 3 stars 4 stars 5 stars
comments

Around The World Tab

   
#----------------------------------PLEASE NOTE--------------------------------#
#This file is the author's own work and represents their interpretation of the#
#song. You may only use this file for private study, scholarship, or research.#
#-----------------------------------------------------------------------------#

Red Hot Chili Peppers
Around the world

Tabbed by Andres (www.geocities.com/clubtabz)


INTRO (6x)

E--/12-12--/12--12--/12--12--12--12--12----
B--/12-12--/12--12--/12--12--12--12--12----
G--/9--9---/9---9---/9---9---9---9---9-----
D------------------------------------------
A------------------------------------------
E------------------------------------------
                                                                              

VERSE (10x)

E-------------------------------
B-------------------------------
G-------------------------------
D--0-3-5-3-5-3-5---0-3-5-3-5----
A-------------------------------
E-------------------------------
                                                                              

CHORUS

Guitar doesn't play for most of the chorus.
In the end John plays this
[ Tab from: http://www.guitartabs.cc/tabs/r/red_hot_chili_peppers/around_the_world_tab_ver_6.html ]
E-----------------------------------------------------
B------------------4---------------------6--4---------
G--5---5--3--5--5-----5--3h5----3--5--5--------3h5----
D-----------------------------------------------------
A-----------------------------------------------------
E-----------------------------------------------------

                                                                              
Play the Intro 4 times, and then play this bit 4 times.

E--12--12-12--12-12-12--12-12-12----
B--12--12-12--12-12-12--12-12-12----
G---9---9--9---9--9--9---9--9--9----
D-----------------------------------
A-----------------------------------
E-----------------------------------

                                                                              
END
   Dm  Em        Dm  Em            Dm  Em        Dm  Em
E--13--15--17----13--15--17--20----13--15--17----13--15--17\----
B--10--12--15----10--12--15--20----10--12--15----10--12--15\----
G--10--12--15----10--12--15--20----10--12--15----10--12--15\----
D---------------------------------------------------------------
A---------------------------------------------------------------
E---------------------------------------------------------------
                                                                              
Mail me to la_laker83@hotmail.com
Comments