Red Hot Chili Peppers - Annie Wants A Baby Chords & Tabs

 

Annie Wants A Baby Chords & Tabs

Red Hot Chili Peppers Chords & Tabs

Version: 1 Type: Bass Tab 0 ratings
1 star 2 stars 3 stars 4 stars 5 stars
comments

Annie Wants A Baby Bass Tab

:::Annie Wants a Baby:::


First part;

--------7-7-------------3-3-------|
------------------------------2-3-|
--5-5-5-----5-8-7-1-1-1-----1-----|
----------------------------------|

Send along the way,....

------------------5-5-5-5-5-5-5-5---------------------------------|
--8-8-8-8-8-8-8-8-------------------------------------------------|
----------------------------------6-6-6-6-6-6-6-6-6-6-6-6-6-6-6-6-|
------------------------------------------------------------------|
[ Tab from: http://www.guitartabs.cc/tabs/r/red_hot_chili_peppers/annie_wants_a_baby_btab.html ]
------------------5-5-5-5-5-5-5-5---------------------------------|
--8-8-8-8-8-8-8-8-------------------------------------------------|
----------------------------------5-5-5-5-5-5-5-5-4-4-4-4-4-4-4-4-|
------------------------------------------------------------------|


Sugar Daddy,....

--7-7-7-7-7-7-7-7-----------------8-8-8-8-8-8-8-8-7-7-7-7-7-5-5---|
------------------5-5-5-5-5-5-5-5-------------------------------8-|
------------------------------------------------------------------|
------------------------------------------------------------------|
Comments