Red Hot Chili Peppers - Animal Bar Chords & Tabs

 

Animal Bar Chords & Tabs

Red Hot Chili Peppers Chords & Tabs

Version: 2 Type: Bass Tab 0 ratings
1 star 2 stars 3 stars 4 stars 5 stars
comments

Animal Bar Bass Tab

   
-----------------------------------------------------------------------------
			     Animal Bar - The Red Hot Chili Peppers
-----------------------------------------------------------------------------

Tabbed By : Kevin A. (Felas_Kevin)
e-mail: vekiskev@yahoo.com

Tuning: Standard

edit: i just noticed that i typed the chorus wrong, now the tab is perfect.

Verse:
 
G|-66~~~~-----------------------|
D|---77~~~~---------------------|
A|------5-5-5-5-5-5-5-5-5-5-5-5-|
E|------------------------------|
Note: Make sure you let all the notes ring out

Chorus:
[ Tab from: http://www.guitartabs.cc/tabs/r/red_hot_chili_peppers/animal_bar_btab_ver_2.html ]
G|--------------------------------444-777-7777-|
D|--------444-7777-7777------555---------------|
A|-----555----------------777------------------|
E|--777----------------------------------------|

Bridge:

G|-11----11----11---11----9----9---7----7----7-11----9----9----|
D|----99----99----9----77---77---7---55---55------77---77---7--|
A|-------------------------------------------------------------|
E|-------------------------------------------------------------|

Song order:
Verse  x 21
Chorus x 4
Verse  x 21
Chorus x 4
Verse  x 5
Bridge x 8
Chorus x 6
Verse  x 9
=============================================================================
| /  slide up
| \  slide down
| h  hammer-on
| p  pull-off
| ~  let ring
| +  harmonic
| x  Mute note
=============================================================================
Comments? Corrections? email me!
There you go! please rate :)
Comments