Red Hot Chili Peppers - Aeroplane Chords & Tabs

 

Aeroplane Chords & Tabs

Red Hot Chili Peppers Chords & Tabs

Version: 5 Type: Bass Tab 0 ratings
1 star 2 stars 3 stars 4 stars 5 stars
comments

Aeroplane Bass Tab

   
----------------------------------------------------------------------------
	       Aeroplane - Red hot chili peppers
----------------------------------------------------------------------------

Tabbed By : Joel Keane (jk41)
e-mail:

Tuning:standard
Martins version is pretty good, i just want to redo or give an alternate
chorus interlude and solo, they arent quite right to me.
1st chorus after the intro
G|--------------------------------------------------------------------------|
D|--------------------------------------------------------------------------|
A|-/10~~-0-1-/3~~------/10~~-0-1-33-355-566-688-8/10~~-0-1-/3~~-------------|
E|----------------0-1-------------------------------------------0-1---------|

G|---------------------------------------------------------------------------|
D|------------------------------------3-3h5-3-------------------3-3h5553h555-|
A|---0-1-3/5-3----------0-1-3-3/5-3-5---------5----0-1-3-3/5-3-5-------------|
E|-3-----------0-1----3--------------------------3---------------------------|

2nd chorus
G|--------------------------------------------------------------------------|
D|--------------------------------------------------------------------------|
A|-/10~~-0-1-/3~~-----/10~~-0-1-33-355-566-6/18brb---/10~~-0-1-/3~~---------|
E|----------------0-1-----------------------------------------------0-1-----|

G|--------------------------------------------------------------------------|
D|----7-8-10/12-10-----------------------3-3h5-3-------7-8-10-10/12-10-12---|
A|-10----------------------0-1-3-3/5-3-5---------5-/10----------------------|
E|-----------------0-1---3--------------------------------------------------|

G|-10-10h12-12-12-10h12-12-10--|
D|-----------------------------|
A|-----------------------------|
E|-----------------------------|

3rd chorus
G|--------------------------------------------------------------------------|
D|----------------------------------3---5-3---------------------------------|
A|-/10~~-0-1-/3~~-----/10~~-0-1-3-5---5-----5--/10~~-0-1-/3~~---------0-1---|
E|----------------0-1-----------------------------------------0-1---3-------|
[ Tab from: http://www.guitartabs.cc/tabs/r/red_hot_chili_peppers/aeroplane_btab_ver_5.html ]
                 interlude
G|--------------[-----------------------------------------------------------|
D|--------------[-----------------------------------------------------------|
A|-3/5-3--------[--6-6---8-8---10-10---8-6-6---8-8---10-10-----6-6---8-8----|
E|--------0-1---[-----------------------------------------------------------|

G|---------10----12----12-10-------------------------10----12-10----12-10----|
D|------12----12----12-------12-------------------12----12-------12-------12-|
A|-10----------------------------6-6---8-8---10------------------------------|
E|---------------------------------------------------------------------------|

G|---------10----------10----12--15-12--------------------------------------|
D|------------------12----12-----------12-----------------------------------|
A|-6-6---8-----10---------------------------6-6--8-8--10-10-10--------------|
E|--------------------------------------------------------------------------|

4th chorus
G|--------------------------------------------------------------------------|
D|--------------------------------------------------------------------------|
A|-/10~~-0-1-/3~~-----/10~~-0-1-3-/12~\------/17~~~~-/10-0-1-/3~-------0-1--|
E|----------------0-1-------------------/12~\--------------------0-1-3------|

G|------------|
D|------------|
A|-3/5-3------|
E|-------0-1--|

solo
G|---0-3-4-------------------------------------------------------------------|
D|---------3-0-5-3-----------------------------------------------------------|
A|-----------------5-3----1---3-1---------------------------3-333-1-1x3x4x5x-|
E|-3--------------------3---3-----3--1-0-2--3-333-1-1-3/15\------------------|

G|----------3-----------------------------0-34----------------5-----------|
D|----5--3----------------------------0-5------5-0-3----------------------|
A|-------------4-3--1--3-1----------------------------0-5-4-3----5/17\----|
E|--3----------------------3--1-0-2--3------------------------------------|

| /  slide up
| \  slide down
| h  hammer-on
| p  pull-off
| ~  vibrato
| +  harmonic
| x  Mute note
===============================================================================
Comments