Red Hot Chili Peppers - Adventures Of Raindance Maggy Chords & Tabs

 

Adventures Of Raindance Maggy Chords & Tabs

Red Hot Chili Peppers Chords & Tabs

Version: 1 Type: Bass Tab 0 ratings
1 star 2 stars 3 stars 4 stars 5 stars
comments

Adventures Of Raindance Maggy Bass Tab

My first tab :)

Enjoy the new song of the Red Hot Chili Peppers on bass :D

VERSE:
|---------------------------------------------------------------------------------------|
|-------7-7--7------7--5-4-3-3---3--5-5-3-5-6-------------------------------------------|
|---------------5-5---------------------------------------------------------------------|
|---------------------------------------------------------------------------------------|
[ Tab from: http://www.guitartabs.cc/tabs/r/red_hot_chili_peppers/adventures_of_raindance_maggy_btab.html ]
|----------------------------------------------------5----------------------------------|
|-------7-7--7------7--5-----3--3---3--5--5--3---2--------------------------------------|
|---------------5-5-------5-------------------------------------------------------------|
|------------------------------------------------------ --------------------------------|
8 times
CHORUS:
|---------------------------------------------------------------------------------------|
|------10--10--------x-10--10----------x--7-7------x-7-----7----------------------------|
|---------------------------------------------------------------------------------------|
|----------------12-------------12-------------9--------9-----9-------------------------|

|---------------------------------------------------------------------------------------|
|------10--10--------x 10--------10------x7-7----x7----7--------------------------------|
|---------------------------------------------------------------------------------------|
|---------------12--------12-12------12-------9------9---9------------------------------|

|--------------------------------------------------5-5-----x5-----5---------------------|
|------3--3------x3---3-------2--2----x2----2-------------------------3-4-5-5-5-5-5-5-5-|
|-------------------------------------------------------7------7------------------------|
|-------------5---- 5---5-----------4-----4---4-----------------------------------------|
2 times

after this:
Verse:  2 times
Chorus: 1 time
Verse:  4 times
Chorus: 2 times
Verse:  8 times
Comments