Recover - My Only Cure Chords & Tabs

 

My Only Cure Chords & Tabs

Recover Chords & Tabs

Version: 1 Type: Tab 0 ratings
1 star 2 stars 3 stars 4 stars 5 stars
comments

My Only Cure Tab

Song:   My Only Cure
Artist: Recover
Album:  This May Be The Year I Disappear

Tabbed by Chase Belliveau aka CBAdvance

~ ring out
\ slide down
p palm mute
b bend note
* harmonic

Drop D Tuning

-Intro
Both Guitars
--------------------------------|
--------------------------------|
--------------------------------|
--9~----------------------------|
--7~----------------------------|
--7~----------------------------|


-Verse 1
Both Guitars
--------------------------------|
--------------------------------|
--------------------------------|
--5-5-7-5-7\--------------------|
--5-5-7-5-7\--------------------|
--5-5-7-5-7\--------------------|

-------------------------------|
-------------------------------|
-------------------------------|
--7-7-5-7\---------------------|
--7-7-5-7\---------------------|
--7-7-5-7\---------------------|

--------------------------------|
--------------------------------|
--------------------------------|
--5-5-7-5-7\--------------------|
--5-5-7-5-7\--------------------|
--5-5-7-5-7\--------------------|

--------------------------------|
--------------------------------|
--------------------------------|
--7-7-5-7\--2-2-3-3-------------|
--7-7-5-7\--2-2-3-3-------------|
--7-7-5-7\--2-2-3-3-------------|

--------------------------------|
--------------------------------|
--------------------------------|
--5-5-7-5-7--1-1--1-1-1--1-1-1--|
--5-5-7-5-7--1-1--1-1-1--1-1-1--|
--5-5-7-5-7--1-1--1-1-1--1-1-1--|
             p p  p p p  p p p

--------------------------------|
--------------------------------|
--------------------------------|
--7-7-5-7\--1-1--1-1-1--1-1-1---|
--7-7-5-7\--1-1--1-1-1--1-1-1---|
--7-7-5-7\--1-1--1-1-1--1-1-1---|
            p p  p p p  p p p

--------------------------------|
--------------------------------|
--------------------------------|
--5-5-7-5-7--1-1--1-1-1--1-1-1--|
--5-5-7-5-7--1-1--1-1-1--1-1-1--|
--5-5-7-5-7--1-1--1-1-1--1-1-1--|
             p p  p p p  p p p

--------------------------------|
--------------------------------|
--------------------------------|
--7-7-5-7\--2-2-3-3-------------|
--7-7-5-7\--2-2-3-3-------------|
--7-7-5-7\--2-2-3-3-------------|


-Chorus part 1 x2
second time guitar 1 ends riff with feedback


Guitar 1
--------------------------------|
--------------------------------|
------2-----2-----2-2p0---------|
--3-3---3-3---3-3---------------|
--3-3---3-3---3-3---------------|
--3-3---3-3---3-3---------------|


Guitar 2
--------------------------------|
--------------------------------|
------5-----5-----5-5p0---------|
--3-3---3-3---3-3---------------|
--------------------------------|
--------------------------------|


Guitar 1
--------------------------------|
--------------------------------|
------4-----4-----4-4p0---------|
--5-5---5-5---5-5---------------|
--5-5---5-5---5-5---------------|
--5-5---5-5---5-5---------------|


Guitar 2
--------------------------------|
--------------------------------|
------7-----7-----7h10-9-7------|
--5-5---5-5---5-5----------10---|
--------------------------------|
--------------------------------|


-Chorus part 2 x2

Guitar 1
--------------------------------|
--------------------------------|
--------------------------------|
-3------5-----------------------|
-3------5-----------------------|
-3-x15--5-x15-------------------|


Guitar 2
hard to figure out exactly
he plays it a unique way
-------10--------|--------7h8-10-|
----------8------|---------------|
--9b9------------|--9b9----------|
------9----------|------9--------|
-----------------|---------------|
-----------------|---------------|
first 3 times      4th time


-Verse 2
Both Guitars
--------------------------------|
--------------------------------|
--------------------------------|
--5-5-7-5-7--1-1--1-1-1--1-1-1--|
--5-5-7-5-7--1-1--1-1-1--1-1-1--|
--5-5-7-5-7--1-1--1-1-1--1-1-1--|
             p p  p p p  p p p

--------------------------------|
--------------------------------|
--------------------------------|
--7-7-5-7\--1-1--1-1-1--1-1-1---|
--7-7-5-7\--1-1--1-1-1--1-1-1---|
--7-7-5-7\--1-1--1-1-1--1-1-1---|
            p p  p p p  p p p

--------------------------------|
--------------------------------|
--------------------------------|
--5-5-7-5-7--1-1--1-1-1--1-1-1--|
--5-5-7-5-7--1-1--1-1-1--1-1-1--|
--5-5-7-5-7--1-1--1-1-1--1-1-1--|
             p p  p p p  p p p

--------------------------------|
--------------------------------|
--------------------------------|
--7-7-5-7\--2-2-3-3-------------|
--7-7-5-7\--2-2-3-3-------------|
--7-7-5-7\--2-2-3-3-------------|

Guitar 1
--------------------------------|
--------------------------------|
--------------------------------|
--5-5-7-5-7--1-1--1-1-1--1-1-1--|
--5-5-7-5-7--1-1--1-1-1--1-1-1--|
--5-5-7-5-7--1-1--1-1-1--1-1-1--|
             p p  p p p  p p p

Guitar 2
12--12--12--12--12--12--10--10---|
--10--10--10--10--10--10--10--10-|
---------------------------------|
---------------------------------|
---------------------------------|
---------------------------------|

Guitar 1
--------------------------------|
--------------------------------|
--------------------------------|
--7-7-5-7\--1-1--1-1-1--1-1-1---|
--7-7-5-7\--1-1--1-1-1--1-1-1---|
--7-7-5-7\--1-1--1-1-1--1-1-1---|
            p p  p p p  p p p

Guitar 2
12--12--12--12--12--1215x414x4--|
--10--10--10--10--10------------|
--------------------------------|
--------------------------------|
--------------------------------|
--------------------------------|

Guitar 1
--------------------------------|
--------------------------------|
--------------------------------|
--5-5-7-5-7--1-1--1-1-1--1-1-1--|
--5-5-7-5-7--1-1--1-1-1--1-1-1--|
--5-5-7-5-7--1-1--1-1-1--1-1-1--|
             p p  p p p  p p p

Guitar 2
12--12--12----12--12--12--------|
--10--10--------10--10----------|
--------------------------------|
--------------------------------|
--------------------------------|
--------------------------------|

-Full Chorus (part 1 & 2)


-Breakdown
Guitar 1
--------------------------------|
--------------------------------|
---------0-0-0------------------|
--7-7-7--7-7-7------------------|
----------------7-7-7-7-6-6-6-6-|
--------------------------------|

Guitar 2
10~-----------------------------|
(continuing from chorus)--------|
--------------------------------|
--------------------------------|
--------------------------------|
--------------------------------|

Guitar 1
--------------------------------|
--------------------------------|
---------0-0-0------------------|
--7-7-7--7-7-7------------------|
----------------7-7-7-7-6-6-6-6-|
--------------------------------|
[ Tab from: http://www.guitartabs.cc/tabs/r/recover/my_only_cure_tab.html ]
Guitar2
--------------------------------|
--------------------------------|
--------------------------------|
7*------------------------------|
--------------------------------|
--------------------------------|

Guitar 1
--------------------------------|
--------------------------------|
---------0-0-0------------------|
--7-7-7--7-7-7------------------|
----------------7-7-7-7-6-6-6-6-|
--------------------------------|

Guitar2
--------------------------------|
--------------------------------|
--------------------------------|
--7-----------------------------|
--7-----------------------------|
--7-x8--------------------------|

Guitar 1
--------------------------------|
--------------------------------|
---------0-0-0------------------|
--7-7-7--7-7-7------------------|
----------------7-7-7-7-6-6-6-6-|
--------------------------------|

Guitar2
--------------------------------|
------7*7*----------------------|
--------------------------------|
--7-7---------------------------|
---------7-7-7--6-6-6-6-5-5-5-5-|
--------------------------------|


Guitar 1
--------------------------------|
--------------------------------|
---------0-0-0------------------|
--7-7-7--7-7-7------------------|
----------------7-7-7-7-6-6-6-6-|
--------------------------------|

Guitar2
--------------------------------|
--------------------------------|
--------------------------------|
--7-----------------------------|
--7-----------------------------|
--7-x8--------------------------|

Guitar 1
--------------------------------|
--------------------------------|
---------0-0-0------------------|
--7-7-7--7-7-7------------------|
----------------7-7-7-7-6-6-6-6-|
--------------------------------|

Guitar2
--------------------------------|
------7*7*----------------------|
--------------------------------|
--7-7---------------------------|
---------7-7-7--6-6-6-6-5-5-5-5-|
--------------------------------|


-Solo

--------10---------10------------|
-----------8----------8----------|
--9b9--------9b9-----------------|
------9----------9---------------|
---------------------------------|
-----------------|---------------|


-Ending Chorus
Guitar 1
--------------------------------|
--------------------------------|
--------------------------------|
--3--3-3--3-3-3--3-3-3--3-3-3---|
--3--3-3--3-3-3--3-3-3--3-3-3---|
--3--3-3--3-3-3--3-3-3--3-3-3---|

Guitar 2
--------10---------10------------|
-----------8----------8----------|
--9b9--------9b9-----------------|
------9----------9---------------|
---------------------------------|
---------------------------------|

Guitar 1
--------------------------------|
--------------------------------|
--------------------------------|
--5--5-5--5-5-5--5-5-5--5-5-5---|
--5--5-5--5-5-5--5-5-5--5-5-5---|
--5--5-5--5-5-5--5-5-5--5-5-5---|

Guitar 2
--------10---------7h8-10--------|
-----------8---------------------|
--9b9--------9b9-----------------|
------9----------9---------------|
---------------------------------|
---------------------------------|

Guitar 1
--------------------------------|
--------------------------------|
--------------------------------|
--3--3-3--3-3-3--3-3-3--3-3-3---|
--3--3-3--3-3-3--3-3-3--3-3-3---|
--3--3-3--3-3-3--3-3-3--3-3-3---|

Guitar 2
--------10---------10------------|
-----------8----------8----------|
--9b9--------9b9-----------------|
------9----------9---------------|
---------------------------------|
---------------------------------|

Guitar 1
--------------------------------|
--------------------------------|
--------------------------------|
--5--5-5--5-5-5--5-5-5--5-5-5---|
--5--5-5--5-5-5--5-5-5--5-5-5---|
--5--5-5--5-5-5--5-5-5--5-5-5---|

Guitar 2
--------10---------7h8-10--------|
-----------8---------------------|
--9b9--------9b9-----------------|
------9----------9---------------|
---------------------------------|
---------------------------------|

Guitar 1
--------------------------------|
--------------------------------|
--------------------------------|
--3--3-3--3-3-3--3-3-3--3-3-3---|
--3--3-3--3-3-3--3-3-3--3-3-3---|
--3--3-3--3-3-3--3-3-3--3-3-3---|

Guitar 2
--------------------------------|
--------------------------------|
--9-----------------------------|
--9-x16-------------------------|
--------------------------------|
--------------------------------|

Guitar 1
--------------------------------|
--------------------------------|
--------------------------------|
--3--3-3--3-3-3--3-3-3--3-3-3---|
--3--3-3--3-3-3--3-3-3--3-3-3---|
--3--3-3--3-3-3--3-3-3--3-3-3---|

Guitar 2
--------------------------------|
--------------------------------|
--7-----------------------------|
--7-x16-------------------------|
--------------------------------|
--------------------------------|

-Ending\Beakdown
Guitar 1
--------------------------------|
--------------------------------|
---------0-0-0------------------|
--7-7-7--7-7-7------------------|
----------------7-7-7-7-6-6-6-6-|
--------------------------------|

Guitar 2
weird slide thing
--10----------------------------|
--------------------------------|
--------------------------------|
--------------------------------|
--------------------------------|
--------------------------------|

Guitar 1
--------------------------------|
--------------------------------|
---------0-0-0------------------|
--7-7-7--7-7-7------------------|
----------------7-7-7-7-6-6-6-6-|
--------------------------------|

Guitar 2
some effect used here, not sure exactly
--------------------------------|
--12~---------------------------|
--9~----------------------------|
--------------------------------|
--------------------------------|
--------------------------------|

Guitar 1
--------------------------------|
--------------------------------|
---------0-0-0------------------|
--7-7-7--7-7-7------------------|
----------------7-7-7-7-6-6-6-6-|
--------------------------------|

Guitar 2
--------------------------------|
--------------------------------|
--------------------------------|
--7-----------------------------|
--7-----------------------------|
--7-x8--------------------------|

Guitar 1
--------------------------------|
--------------------------------|
---------0-0-0------------------|
--7-7-7--7-7-7------------------|
----------------7-7-7-7-6-6-6-6-|
--------------------------------|

Guitar 2
--------------------------------|
--------------------------------|
--------------------------------|
--7-----------------------------|
--7-----------------------------|
--7-x8--------------------------|

Guitar 1
--------------------------------|
--------------------------------|
--------------------------------|
--7~----------------------7\----|
--------------------------------|
--------------------------------|

Guitar 2
--------------------------------|
--------------------------------|
--------------------------------|
--------------------------7\----|
--------------------------7\----|
--------------------------7\----|

Questions or comments
to chase_b@sbcglobal.net
Comments