Recko - Runaway Chords & Tabs

 

Runaway Chords & Tabs

Recko Chords & Tabs

Version: 1 Type: Bass Tab 0 ratings
1 star 2 stars 3 stars 4 stars 5 stars
comments

Runaway Bass Tab

www.recko.moonfruit.com
[ Tab from: http://www.guitartabs.cc/tabs/r/recko/runaway_btab.html ]
Runaway
Chorus
Play these in power chords and the B parm mute
G---------------------------------------------------------------|
D---------------------------------------------------------------|
A----------7---------------------7----------997-----------------|
E-777777-7777775777777--777777----------------------------------|
Main Riff
G---11-11--11-----9-9-9------------------|
D---11-11--11-----9-9-9----9-9-9-11------|
A-9- 9- 9---9----7-7-7-7----9-9-9-11-----| fade
E-----------------------------7-7-7-7--9-|
Verse
G----------------------------|
D----------------------------|
A----------------------------|
E-997777----6----------------|
Interlude
G--------11-----9-----------------|
D---11-------9--------9-----11----|
A-9----9---7--7---9-----11--------|
E------------------7--7-9---------|
Chorus
Main Riff ?2
Verse ?4
Main Riff ?2
Chorus
Interlude ?2
Comments