Rearranged - Breath Chords & Tabs

 

Breath Chords & Tabs

Rearranged Chords & Tabs

Version: 1 Type: Tab 0 ratings
1 star 2 stars 3 stars 4 stars 5 stars
comments

Breath Tab

-------------------------------------------------
-------------------------------------------------
-------------------------------------------------
--7-7-7-7----------------------------------------
--5-5-5-5---8-8-8-8---10-10-10-10---7-7-7-7------
------------6-8-6-6----8--8--8--8---5-5-5-5------
Guitar 1
[ Tab from: http://www.guitartabs.cc/tabs/r/rearranged/breath_tab.html ]
-------------------------------------------------
-------------------------------------------------
--2-2-2-2---3-3-3-5---2-2-2-2------3-3-3-5----2--
--0-0-0-0---0-0-0-0---0-0-0-0-------0-0-0-0-----0
-------------------------------------------------
-------------------------------------------------
Guitar 2 w/ no pick

INTRO ONLY!!!!!!!!!!!!!!!!!!!1 PLAY 4 TIMES!!!
Comments