Reap - Revelation Chords & Tabs

 

Revelation Chords & Tabs

Reap Chords & Tabs

Version: 1 Type: Tab 0 ratings
1 star 2 stars 3 stars 4 stars 5 stars
comments

Revelation Tab

The first track of the new record 'therefore we are' enjoy that shit, 'cause it really rocks!
Reap - Revelation
[ Tab from: http://www.guitartabs.cc/tabs/r/reap/revelation_tab.html ]
 |               |                
|--------------------------------|
|--------------------------------|
|--------------------------------|
|--------------------------------|
|0---0---0-------0---0---0-------|
|0---0---0-------0---0---0-------|
 
 |               |               |               |                
|----------------------------------------------------------------|
|----------------------------------------------------------------|
|----------------------------------------------------------------|
|----------------------------------------------------------------|
|--------------------------------0---0---0-------0---0---0-------|
|--------------------------------0---0---0-------0---0---0-------|
 
 |               |               |               |                
|----------------------------------------------------------------|
|----------------------------------------------------------------|
|----------------------------------------------------------------|
|----------------------------------------------------------------|
|--------------------------------0---0---0-------0---0---0-------|
|--------------------------------0---0---0-------0---0---0-------|
 
 |               |               |               |                
|----------------------------------------------------------------|
|----------------------------------------------------------------|
|----------------------------------------------------------------|
|----------------------------------------------------------------|
|--------------------------------6---6---6-------6---6---6-------|
|--------------------------------6---6---6-------6---6---6-------|
 
 |               |               |               |                
|----------------------------------------------------------------|
|----------------------------------------------------------------|
|----------------------------------------------------------------|
|----------------------------------------------------------------|
|--------------------------------0---0---0-------0---0---0-------|
|--------------------------------0---0---0-------0---0---0-------|
 
 |               |               |               |                
|----------------------------------------------------------------|
|----------------------------------------------------------------|
|----------------------------------------------------------------|
|----------------------------------------------------------------|
|--------------------------------0---0---0-------0---0---0-------|
|--------------------------------0---0---0-------0---0---0-------|
 
 |               |               |               |                
|----------------------------------------------------------------|
|----------------------------------------------------------------|
|----------------------------------------------------------------|
|----------------------------------------------------------------|
|--------------------------------0---0---0-------0---0---0-------|
|--------------------------------0---0---0-------0---0---0-------|
 
 |               |               |               |                
|----------------------------------------------------------------|
|----------------------------------------------------------------|
|----------------------------------------------------------------|
|0---------------3---------------6---------------5---------------|
|0---------------3---------------6---------------5---------------|
|0---------------3---------------6---------------5---------------|
 
 Intro Pt2 4x    |               |               |                
|----------------------------------------------------------------|
|----------------------------------------------------------------|
|----------------------------------------------------------------|
|----------------------------------------------------------------|
|--------7-------6-------5---------------------------------------|
|0-------------------------------0---0---0-------0---0---0-------|
 
 |               |               |               |                
|----------------------------------------------------------------|
|----------------------------------------------------------------|
|----------------------------------------------------------------|
|----------------------------------------------------------------|
|--------7-------6-------5---------------------------------------|
|0-------------------------------0---0---0-------0---0---0-------|
 
 |               |               |               |                
|----------------------------------------------------------------|
|----------------------------------------------------------------|
|----------------------------------------------------------------|
|----------------------------------------------------------------|
|--------7-------6-------5---------------------------------------|
|0-------------------------------0---0---0-------0---0---0-------|
 
 |               |               |               |                
|----------------------------------------------------------------|
|----------------------------------------------------------------|
|----------------------------------------------------------------|
|----------------------------------------------------------------|
|--------7-------6-------5---------------------------------------|
|0-------------------------------6---6---6-------6---6---6---6---|
 
 |               |               |               |                
|----------------------------------------------------------------|
|----------------------------------------------------------------|
|----------------------------------------------------------------|
|----------------------------------------------------------------|
|--------7-------6-------5---------------------------------------|
|0-------------------------------0---0---0-------0---0---0-------|
 
 |               |               |               |                
|----------------------------------------------------------------|
|----------------------------------------------------------------|
|----------------------------------------------------------------|
|----------------------------------------------------------------|
|--------7-------6-------5---------------------------------------|
|0-------------------------------0---0---0-------0---0---0-------|
 
 |               |               |               |                
|----------------------------------------------------------------|
|----------------------------------------------------------------|
|----------------------------------------------------------------|
|----------------------------------------------------------------|
|--------7-------6-------5---------------------------------------|
|0-------------------------------0---0---0-------0---0---0-------|
 
 |               |               |               |                
|----------------------------------------------------------------|
|----------------------------------------------------------------|
|----------------------------------------------------------------|
|0---------------3---------------6---------------5---------------|
|0---------------3---------------6---------------5---------------|
|0---------------3---------------6---------------5---------------|
 
 |               |               |               |                
|----------------------------------------------------------------|
|----------------------------------------------------------------|
|7-------------------------------7---------------------------7/--|
|----------------------------------------------------------------|
|5-------------------------------5---------------------------5/--|
|0-------------------------------0---------------------------0/--|
 
 |               |               |               |                
|----------------------------------------------------------------|
|----------------------------------------------------------------|
|10------10------10------10------10--------------------------10--|
|----------------------------------------------------------------|
|8-------8-------8-------8-------8---------------------------8---|
|0-------0-------0-------0-------0---------------------------0---|
 
 |               |               |               |                
|----------------------------------------------------------------|
|----------------------------------------------------------------|
|----------------------------------------------------------------|
|0-------------------------------1-------0---------------0-------|
|0-------------------------------1-------0---------------0-------|
|0-------------------------------1-------0---------------0-------|
 
 |               |               |               |                
|----------------------------------------------------------------|
|----------------------------------------------------------------|
|----------------------------------------------------------------|
|--------1/------3-----------------------------------------------|
|--------1/------3-------0-------4-------------------------------|
|--------1/------3-------0---------------------------------------|
 
 |               |               |               |                
|----------------------------------------------------------------|
|----------------------------------------------------------------|
|----------------------------------------------------------------|
|----------------0---------------1-------0---------------0-------|
|0-------0-------0---------------1-------0---------------0-------|
|0-------0-------0---------------1-------0---------------0-------|
 
 |               |               |               |                
|----------------------------------------------------------------|
|----------------------------------------------------------------|
|----------------------------------------------------------------|
|--------1/------3-----------------------------------------------|
|--------1/------3-------0-------4-------------------------------|
|--------1/------3-------0---------------------------------------|
 
 |               |               |               |                
|----------------------------------------------------------------|
|----------------------------------------------------------------|
|----------------------------------------------------------------|
|----------------0---------------1-------0---------------0-------|
|----------------0---------------1-------0---------------0-------|
|----------------0---------------1-------0---------------0-------|
 
 |               |               |               |                
|----------------------------------------------------------------|
|----------------------------------------------------------------|
|----------------------------------------------------------------|
|--------1/------3-----------------------------------------------|
|--------1/------3-------0-------4-------------------------------|
|--------1/------3-------0---------------------------------------|
 
 |               |               |               |                
|----------------------------------------------------------------|
|----------------------------------------------------------------|
|----------------------------------------------------------------|
|----------------0---------------1-------0---------------0-------|
|0-------0-------0---------------1-------0---------------0-------|
|0-------0-------0---------------1-------0---------------0-------|
 
 |               |               |               |                
|----------------------------------------------------------------|
|----------------------------------------------------------------|
|----------------------------------------------------------------|
|--------1/------3-----------------------------------------------|
|--------1/------3-------0-------3-----------3-----------3-------|
|--------1/------3-------0-------3-----------3-----------3-------|
 
 |               |                
|--------------------------------|
|--------------------------------|
|--------------------------------|
|--------------------------------|
|--------------------------------|
|--------------------------------|
 
 Strophe         |               |               |                
|----------------------------------------------------------------|
|----------------------------------------------------------------|
|----------------------------------------------------------------|
|0-------------------------------1-------0-----------0-----------|
|0-------------------------------1-------0-----------0-----------|
|0-------------------------------1-------0-----------0-----------|
 
 |               |               |               |                
|----------------------------------------------------------------|
|----------------------------------------------------------------|
|----------------------------------------------------------------|
|--------1/------3-----------------------------------------------|
|--------1/------3-------0-------4-------------------------------|
|--------1/------3-------0---------------------------------------|
 
 |               |               |               |                
|----------------------------------------------------------------|
|----------------------------------------------------------------|
|----------------------------------------------------------------|
|----------------0---------------1-------0---------------0-------|
|0-------0-------0---------------1-------0---------------0-------|
|0-------0-------0---------------1-------0---------------0-------|
 
 |               |               |               |                
|----------------------------------------------------------------|
|----------------------------------------------------------------|
|----------------------------------------------------------------|
|--------1/------3-----------------------------------------------|
|--------1/------3-------0-------4-------------------------------|
|--------1/------3-------0---------------------------------------|
 
 |               |               |               |                
|----------------------------------------------------------------|
|----------------------------------------------------------------|
|----------------------------------------------------------------|
|----------------0---------------1-------0---------------0-------|
|----------------0---------------1-------0---------------0-------|
|----------------0---------------1-------0---------------0-------|
 
 |               |               |               |                
|----------------------------------------------------------------|
|----------------------------------------------------------------|
|----------------------------------------------------------------|
|--------1-------3-----------------------------------------------|
|--------1-------3-------0-------4-------------------------------|
|--------1-------3-------0---------------------------------------|
 
 |               |               |               |                
|----------------------------------------------------------------|
|----------------------------------------------------------------|
|----------------------------------------------------------------|
|----------------0---------------1-------0---------------0-------|
|0-------0-------0---------------1-------0---------------0-------|
|0-------0-------0---------------1-------0---------------0-------|
 
 |               |               |               |                
|----------------------------------------------------------------|
|----------------------------------------------------------------|
|----------------------------------------------------------------|
|--------1/------3-----------------------------------------------|
|--------1/------3-------0-------4-------------------------------|
|--------1/------3-------0---------------------------------------|
 
 Pre Chorus      |               |               |                
|----------------------------------------------------------------|
|----------------------------------------------------------------|
|----------------------------------------------------------------|
|----------------------------------------------------------------|
|----------------------------------------------------------------|
|0---------------3---------------0-------3---------------0-------|
 
 |               |               |               |                
|----------------------------------------------------------------|
|----------------------------------------------------------------|
|----------------------------------------------------------------|
|----------------------------------------------------------------|
|----------------------------------------------------------------|
|--------3---------------0-------5h------6-------6---------------|
 
 |               |               |               |                
|----------------------------------------------------------------|
|----------------------------------------------------------------|
|----------------------------------------------------------------|
|----------------------------------------------------------------|
|----------------------------------------------------------------|
|0---------------3---------------0-------3---------------0-------|
 
 |               |               |               |                
|----------------------------------------------------------------|
|----------------------------------------------------------------|
|----------------------------------------------------------------|
|----------------------------------------------------------------|
|----------------------------------------------------------------|
|3---3---3-------3---3---3-------3---3---3-------3---3---3-------|
 
 Chorus          |               |               |                
|----------------------------------------------------------------|
|----------------------------------------------------------------|
|----------------------------------------------------------------|
|5-------6-------5-------6-------5-------6-------5-------6-------|
|----------------------------------------------------------------|
|----------------------------------------------------------------|
 
 |               |               |               |                
|----------------------------------------------------------------|
|----------------------------------------------------------------|
|----------------------------------------------------------------|
|3-------4-------3-------4-------3-------4-------3-------3-------|
|----------------------------------------------------------------|
|----------------------------------------------------------------|
 
 |               |               |               |                
|----------------------------------------------------------------|
|----------------------------------------------------------------|
|----------------------------------------------------------------|
|----------------------------------------------------------------|
|0-------0-------1---------------1-------0-----------1---1---1---|
|0-------0-------1---------------1-------0-----------1---1---1---|
 
 |               |               |               |                
|----------------------------------------------------------------|
|----------------------------------------------------------------|
|----------------------------------------------------------------|
|----------------------------------------------------------------|
|1-------1-------1---------------1-------0-----------------------|
|1-------1-------1---------------1-------0-----------------------|
 
 |               |               |               |                
|----------------------------------------------------------------|
|----------------------------------------------------------------|
|----------------------------------------------------------------|
|----------------------------------------------------------------|
|----------------------------------------------------------------|
|----------------------------------------------------------------|
 
 |               |               |               |                
|----------------------------------------------------------------|
|----------------------------------------------------------------|
|----------------------------------------------------------------|
|--------------------------------------------------------12/-----|
|--------------------------------------------------------12/-----|
|--------------------------------------------------------12/-----|
 
 Strophe         |               |               |                
|----------------------------------------------------------------|
|----------------------------------------------------------------|
|----------------------------------------------------------------|
|----------------------------------------------------------------|
|----------------------------------------------------------------|
|----------------------------------------------------------------|
 
 Pre Chorus      |               |               |                
|----------------------------------------------------------------|
|----------------------------------------------------------------|
|----------------------------------------------------------------|
|----------------------------------------------------------------|
|----------------------------------------------------------------|
|----------------------------------------------------------------|
 
 Pre Chorus strumming            |               |                
|----------------------------------------------------------------|
|----------------------------------------------------------------|
|----------------------------------------------------------------|
|----------------------------------------------------------------|
|----------------------------------------------------------------|
|----------------------------------------------------------------|
 
 Chorus          |               |               |                
|----------------------------------------------------------------|
|----------------------------------------------------------------|
|----------------------------------------------------------------|
|----------------------------------------------------------------|
|----------------------------------------------------------------|
|----------------------------------------------------------------|
 
 |               |               |               |                
|----------------------------------------------------------------|
|----------------------------------------------------------------|
|----------------------------------------------------------------|
|0-------0-------1---------------1-------0-----------1---1---1---|
|0-------0-------1---------------1-------0-----------1---1---1---|
|0-------0-------1---------------1-------0-----------1---1---1---|
 
 |               |               |               |                
|----------------------------------------------------------------|
|----------------------------------------------------------------|
|----------------------------------------------------------------|
|1-------1-------1---------------1-------0---------------0-------|
|1-------1-------1---------------1-------0---------------0-------|
|1-------1-------1---------------1-------0---------------0-------|
 
 |               |               |               |                
|----------------------------------------------------------------|
|----------------------------------------------------------------|
|----------------------------------------------------------------|
|0-------0-------1---------------1-------0-----------1---1---1---|
|0-------0-------1---------------1-------0-----------1---1---1---|
|0-------0-------1---------------1-------0-----------1---1---1---|
 
 |               |               |               |                
|----------------------------------------------------------------|
|----------------------------------------------------------------|
|----------------------------------------------------------------|
|1-------1-------1---------------1-------0-----------------------|
|1-------1-------1---------------1-------0-----------------------|
|1-------1-------1---------------1-------0-----------------------|
 
 8 measures break|               |               |                
|----------------------------------------------------------------|
|----------------------------------------------------------------|
|----------------------------------------------------------------|
|----------------------------------------------------------------|
|----------------------------------------------------------------|
|----------------------------------------------------------------|
 
 clean sound     |               |               |                
|----------------------------------------------------------------|
|----------------------------------------------------------------|
|----------------------------------------------------------------|
|----------------3-----------------------------------------------|
|--------0-------------------------------------------------------|
|0---------------------------------------------------------------|
 
 |               |               |               |           8x   
|----------------------------------------------------------------|
|----------------------------------------------------------------|
|------------------------5---------------------------------------|
|----------------3-----------------------------------------------|
|--------0---------------------------------------3---------------|
|0---------------------------------------------------------------|
 
 |               |               |               |                
|----------------------------------------------------------------|
|----------------------------------------------------------------|
|----------------------------------------------------------------|
|----------------------------------------------------------------|
|--------7-------6-------5---------------------------------------|
|0-------------------------------0---0---0-------0---0---0-------|
 
 |               |               |               |                
|----------------------------------------------------------------|
|----------------------------------------------------------------|
|----------------------------------------------------------------|
|----------------------------------------------------------------|
|--------7-------6-------5---------------------------------------|
|0-------------------------------6---6---6-------6---6---6-------|
 
 |               |               |               |                
|----------------------------------------------------------------|
|----------------------------------------------------------------|
|----------------------------------------------------------------|
|----------------------------------------------------------------|
|--------7-------6-------5---------------------------------------|
|0-------------------------------0---0---0-------0---0---0-------|
 
 |               |               |               |                
|----------------------------------------------------------------|
|----------------------------------------------------------------|
|----------------------------------------------------------------|
|0---------------3---------------6---------------5---------------|
|0---------------3---------------6---------------5---------------|
|0---------------3---------------6---------------5---------------|
 
 Intro Pt2 4x    |               |               |                
|----------------------------------------------------------------|
|----------------------------------------------------------------|
|----------------------------------------------------------------|
|----------------------------------------------------------------|
|----------------------------------------------------------------|
|----------------------------------------------------------------|
 
 |               |               |               |                
|----------------------------------------------------------------|
|----------------------------------------------------------------|
|----------------------------------------------------------------|
|----------------------------------------------------------------|
|--------7-------6-------5---------------------------------------|
|0-------------------------------0---0---0-------0---0---0-------|
 
 |               |               |               |                
|----------------------------------------------------------------|
|----------------------------------------------------------------|
|----------------------------------------------------------------|
|----------------------------------------------------------------|
|--------7-------6-------5---------------------------------------|
|0-------------------------------0---0---0-------0---0---0-------|
 
 |               |               |               |                
|----------------------------------------------------------------|
|----------------------------------------------------------------|
|----------------------------------------------------------------|
|----------------------------------------------------------------|
|--------7-------6-------5---------------------------------------|
|0-------------------------------0---0---0-------0---0---0-------|
 
 |               |               |               |                
|----------------------------------------------------------------|
|----------------------------------------------------------------|
|----------------------------------------------------------------|
|0---------------3---------------6---------------5---------------|
|0---------------3---------------6---------------5---------------|
|0---------------3---------------6---------------5---------------|
 

Created with TablEdit for Mac - http://www.tabledit.com/
Comments