Reamonn - Josephine Chords & Tabs

 

Josephine Chords & Tabs

Reamonn Chords & Tabs

Version: 1 Type: Tab 0 ratings
1 star 2 stars 3 stars 4 stars 5 stars
comments

Josephine Tab

   
Author / Artist: Reamonn
Title: Josephine
Transcribed by: Tobi
Email: tobi.klier@gmx.de


1st part of the Intro:

E---------------
B-------3-------
G----0----------
D---------------
A---------------
E---------------

2nd part of the Intro / Verse:
    G	        A	 	  C        D
E-----------------------------------------------------------V-------B--------0---------0--------0-------------------------------E-------
G------0---0-----0---0----0---0----0-4p5~4------------------R-------
D-----------------------------------------------------------S-------
A-----------------------3--------5--------------------------E-------
E---3---------5---------------------------------------------1-------
    	
    G         A         C        D
E-----------------------------------------------------------V-------
B--------0--------0---------0--------0----------------------E-------
G------0---0----0---0-----0---0----0---0--------------------R-------
D-----------------------------------------------------------S-------
A-----------------------3--------5--------------------------E-------
E---3---------5---------------------------------------------2-------

Following is played:
Verse 1: 1x
Verse 2: 5x

When you're here 
Every thought I ever had
Becomes clear
But when you're far
The only light I ever see
Is the Stars.

Following is played:
Verse 1: 1x
Verse 2: 5x

And when you go
Feelings burn
As they grow
?Cause to me
To me you're beautiful.





Chorus:

    G		Bm	C					D
E---3------7----8----Can be played---------10-----------------------
B---3------7----8----after the C-Chord:----10-----------------------
G---4------7----9--------------------------11-----------------------
D---5------9----10-------------------------12-----------------------
A---5------9----10-------------------------12-----------------------
E---3------7----8--------------------------10-----------------------
[ Tab from: http://www.guitartabs.cc/tabs/r/reamonn/josephine_tab.html ]
			G
But when you're here 
	Bm
Josephine 
	C			    (D)	
The stars don't shine so bright
		   G 	
But yeah with me
	Bm
Josephine
	 C			(D)
You'd never sleep at night
			G
But when you're here
    Bm
Josephine
    C				   (D) 	  	    	
The stars don't shine so bright
		   G	
But yeah with me
    Bm 
Josephine
	 C		    (D)
You'd never sleep at night.



Verse:

E-----------------------------------------------------------V-------B-------0--------0--------0--------0------------------------E-------G-----0---0----0---0----0---0----0---0----------------------R-------D-----------------------------------------------------------S-------A---------------------3--------5----------------------------E-------E---3--------5----------------------------------------------2-------

Now only Verse 2:

But when you go
I never sleep as I do
And my dreams 
I hold you like I never
Will release




Chorus:
			G
But when you're here
    Bm   	
Josephine
    C                   (D)
The stars don't shine so bright
		   G	
But yeah with me
    Bm	
Josephine
	 C		    (D)	
You'd never sleep at night
    			G
But when you're here
    Bm
Josephine
    C                   (D)
The stars don't shine so bright
		   G
But yeah with me
    Bm 
Josephine
	 C		    (D) 
You'd never sleep at night
	  G
My Josephine.


Pre-Chorus:

    G		C	   D	
E---3------8-------10--------x-------------------------------------B---3------8-------10--------x--------------------------------------G---4------9-------11--------x--------------------------------------D---5------10------12--------x--------------------------------------A---5------10------12--------x--------------------------------------E---3------8-------10--------x--------------------------------------

G  C	 D            xxxxxx   G  C  D	
I'm dreaming of you
		  xxxxxxx  G  C  D
Are you dreaming it too
        xxxxxxx   G  C  D
I'm dreaming of you
        
I scream your name.


Chorus: ... as already shown ...

Pre-Chorus: ... same as above ...





						E
The Song's ending on:		E-----7----------
					B-----7----------
					G-----9----------
					D-----9----------
					A-----7----------
					E-----7----------  
									GOOD LUCK!!

So, I think I figured it out that way, everybody can use it. It's really very easy. If you are NOT able to play this Song along with my help...  ...kick your guitar away or smash it against your head,
?cause it's useless!!

Otherwise I wish you much fun with that great Song.

For any comments, you got my Email-address.
					
			THANX
				tobi
  
  
				
Comments