Reamonn - Alright Chords & Tabs

 

Alright Chords & Tabs

Reamonn Chords & Tabs

Version: 1 Type: Bass Tab 0 ratings
1 star 2 stars 3 stars 4 stars 5 stars
comments

Alright Bass Tab

Reamon - Alright
Album Beautyful Sky 2003
tabbed by Siriusbass

Intro:
G------------------------------------------------------------------------
D------------------------------------------------------------------------
A------------------------------------------------------------------------
E--------4-----------4----------4--------------4-------------------------

Wipe those tears away ....
G------------------------------------------------------------------------
D------------------------------------------------------------------------
A------------------------------------------4--------4--------------------
E----4----------4---------6--------6---------------------------4------4--

Donīt let the world....
G------------------------------------------------------------------------
D------------------------------------------------------------------------
A--------------------------------4--4--4--4---------------------------- 2x
E----4--4--4--4----6--6--6--6------------------4--4--4--4----------------

Iīll pick you up....
G-------------------------------------------------------------------------
D-------------------------------------------------------------------------
A-66666666-----------44444444-----------66666666---------44444444-44444444
E-----------66666666-----------444444444---------66666666-----------------

Cause itīs alright....
G--------------------------------------------------------------------------
D--------------------------------------------------------------------------
A-------------------------------------44444444-44444444--------------------
E-44444444-44444444-66666666-66666666-------------------44444444-44444444--
[ Tab from: http://www.guitartabs.cc/tabs/r/reamonn/alright_btab.html ]
Sometimes the words....
G--------------------------------------------------------------------------
D--------------------------------------------------------------------------
A-------------------------------------44444444-44444444--------------------
E-44444444-44444444-66666666-66666666-------------------44444444-44444444--

G--------------------------------------------------------------------------
D--------------------------------------------------------------------------
A-------------------------------------44444444-44444444-44444444-44444444--
E-44444444-44444444-66666666-66666666--------------------------------------

Let me make it alright....
G--------------------------------------------------------------------------
D--------------------------------------------------------------------------
A---------------------------------------44444444-44444444------------------
E-44444444-44444444--66666666-66666666-------------------44444444-44444444-

Itīs alright.....
G-------------------------------------------------------------------------
D-------------------------------------------------------------------------
A--------------------------------------44444444-44444444------------------
E-44444444-44444444--66666666-66666666------------------44444444-44444444-

Iīll pick you up.....
G-------------------------------------------------------------------------
D-------------------------------------------------------------------------
A-66666666-----------44444444----------66666666---------44444444-44444444-
E----------66666666-----------44444444---------66666666-------------------

Cause itīs alright...
G-------------------------------------------------------------------------
D-------------------------------------------------------------------------
A-------------------------------------44444444-44444444-------------------
E-44444444-44444444-66666666-66666666-------------------44444444-44444444-

Itīs alright.....
G-------------------------------------------------------------------------
D-------------------------------------------------------------------------
A-------------------------------------44444444-44444444-----------------2x
E-44444444-44444444-66666666-66666666------------------44444444-44444444--
Comments