Reagan Youth - Reagan Youth Chords & Tabs

 

Reagan Youth Chords & Tabs

Reagan Youth Chords & Tabs

Version: 1 Type: Tab 0 ratings
1 star 2 stars 3 stars 4 stars 5 stars
comments

Reagan Youth Tab

   
-----------------------------------------------------------------
REAGAN YOUTH - Reagan Youth
-----------------------------------------------------------------
Tabbed by: DumbKids
Album: A Collection of Pop Classics
Tuning: Standard

Intro:
e|--------------------|   |-----------------|
B|--------------------|   |-----------------|
G|-9-9-9-9-9--7-7-7-7-|x3 |-----------------|
D|-9-9-9-9-9--7-7-7-7-|   |-9-9-9-9-9-9-9-9-|
A|-7-7-7-7-7--5-5-5-5-|   |-9-9-9-9-9-9-9-9-|
E|--------------------|   |-7-7-7-7-7-7-7-7-|
				(pickslide\)
Verse 1:
e|----------------------------------|
B|----------------------------------|
G|-9-9-9-9-9-9-9-9--7-7-7-7-7-7-7-7-|x2
D|-9-9-9-9-9-9-9-9--7-7-7-7-7-7-7-7-|
A|-7-7-7-7-7-7-7-7--5-5-5-5-5-5-5-5-|
E|----------------------------------|

e|--------------------|   |-----------------|
B|--------------------|   |-----------------|
G|-9-9-9-9-9--7-7-7-7-|x3 |-----------------|
D|-9-9-9-9-9--7-7-7-7-|   |-9-9-9-9-9-9-9-9-|
A|-7-7-7-7-7--5-5-5-5-|   |-9-9-9-9-9-9-9-9-|
E|--------------------|   |-7-7-7-7-7-7-7-7-|
(Fill 1 on 3rd Time)

Fill 1:
e|-12----12----12----12----12----|
B|-15b17-15b17-15b17-15b17-15b17-|
G|-------------------------------|
D|-------------------------------|
A|-------------------------------|
E|-------------------------------|

Chorus:
e|------------------------------------------|
B|------------------------------------------|
G|-9-9-9-9-9-9-9-9--12-12-12-12-12-12-12-12-|x2
D|-9-9-9-9-9-9-9-9--12-12-12-12-12-12-12-12-|
A|-7-7-7-7-7-7-7-7--10-10-10-10-10-10-10-10-|
E|------------------------------------------|

e|------------------------------------------|
B|------------------------------------------|
G|------------------12-12-12-12-12-12-12-12-|
D|-7-7-7-7-7-7-7-7--12-12-12-12-12-12-12-12-|
A|-7-7-7-7-7-7-7-7--10-10-10-10-10-10-10-10-|
E|-5-5-5-5-5-5-5-5--------------------------|
			(pickslide\)

Intro:
e|--------------------|   |-----------------|
B|--------------------|   |-----------------|
G|-9-9-9-9-9--7-7-7-7-|x3 |-----------------|
D|-9-9-9-9-9--7-7-7-7-|   |-9-9-9-9-9-9-9-9-|
A|-7-7-7-7-7--5-5-5-5-|   |-9-9-9-9-9-9-9-9-|
E|--------------------|   |-7-7-7-7-7-7-7-7-|

Verse 2:
e|---------------------------------------|
B|---------------------------------------|
G|-9-----------7-----------9-----------7-|
D|-9-----------7-----------9-----------7-|
A|-7-----------5-----------7-----------5-|
E|---------------------------------------|
   (pickslide\)
[ Tab from: http://www.guitartabs.cc/tabs/r/reagan_youth/reagan_youth_tab.html ]
e|--------------------|   |-----------------|
B|--------------------|   |-----------------|
G|-9-9-9-9-9--7-7-7-7-|x3 |-----------------|
D|-9-9-9-9-9--7-7-7-7-|   |-9-9-9-9-9-9-9-9-|
A|-7-7-7-7-7--5-5-5-5-|   |-9-9-9-9-9-9-9-9-|
E|--------------------|   |-7-7-7-7-7-7-7-7-|
				(Fill 2)

e|----------------------------------|
B|----------------------------------|
G|-9-9-9-9-9-9-9-9--7-7-7-7-7-7-7-7-|x2
D|-9-9-9-9-9-9-9-9--7-7-7-7-7-7-7-7-|
A|-7-7-7-7-7-7-7-7--5-5-5-5-5-5-5-5-|
E|----------------------------------|
			(pickslide\ on 2nd time)

e|--------------------|   |-----------------|
B|--------------------|   |-----------------|
G|-9-9-9-9-9--7-7-7-7-|x3 |-----------------|
D|-9-9-9-9-9--7-7-7-7-|   |-9-9-9-9-9-9-9-9-|
A|-7-7-7-7-7--5-5-5-5-|   |-9-9-9-9-9-9-9-9-|
E|--------------------|   |-7-7-7-7-7-7-7-7-|

Fill 2:
e|-7------7-----7-----7-----7-----7-----|
B|-10b12--10b12-10b12-10b12-10b12-10b12-|
G|--------------------------------------|
D|--------------------------------------|
A|--------------------------------------|
E|--------------------------------------|

Chorus:
e|------------------------------------------|
B|------------------------------------------|
G|-9-9-9-9-9-9-9-9--12-12-12-12-12-12-12-12-|x2
D|-9-9-9-9-9-9-9-9--12-12-12-12-12-12-12-12-|
A|-7-7-7-7-7-7-7-7--10-10-10-10-10-10-10-10-|
E|------------------------------------------|

e|------------------------------------------|
B|------------------------------------------|
G|------------------12-12-12-12-12-12-12-12-|
D|-7-7-7-7-7-7-7-7--12-12-12-12-12-12-12-12-|
A|-7-7-7-7-7-7-7-7--10-10-10-10-10-10-10-10-|
E|-5-5-5-5-5-5-5-5--------------------------|
			(pickslide\ on 1rst time)
Ending:
e|--------------------|   |---|
B|--------------------|   |---|
G|-9-9-9-9-9--7-7-7-7-|x3 |---|
D|-9-9-9-9-9--7-7-7-7-|   |-9-|
A|-7-7-7-7-7--5-5-5-5-|   |-9-|
E|--------------------|   |-7-|

Key:
| B bend |

Order:

Intro
Verse
Chorus
Intro
Verse
Chorus
Ending

Lyrics:

We are the sons of Reagan ...Heil!
Gonna kill some pagans ...Heil!
The right's your sacred mission
Start an inquisition
We're gonna purge the heathen kind

We are Reagan Youth! ...Heil! Heil! Heil!
Reagan Youth ...Seig Heil!

We are the sons of Reagan ...Heil!
We are the godforsaken ...Heil!
The right is our religion
We watch television
It programs our brainwashed minds

We are the sons of Reagan ...Heil!
We are the unawakened ...Heil!
Want another war
Forward to El Salvador
Gonna kill a communist

We are Reagan Youth! ...Heil! Heil! Heil!
Reagan Youth! ...Seig Heil!

Don't be fooled!
Comments