Rb32 - Memories Chords & Tabs

 

Memories Chords & Tabs

Rb32 Chords & Tabs

Version: 1 Type: Tab 0 ratings
1 star 2 stars 3 stars 4 stars 5 stars
comments

Memories Tab

  

  
TITLE-memories
ARTIST-rb32
ALBUM-the jokes on you
TABBED BY- kyle orlando





                           intro

[]----------------------------------
[]----------------------------------
[]----------------------------------
[]------3-----5---2-----------0-----
[]----0----3----0-------0-----------



                          verse 1,2,& 3
-
[]----------------------------------------------------------------------
[]----------------------------------------------------------------------
[]----------------------------------------------------------------------
[]---5-5-5-5-5-5-5-5---6-6-6-6-6-6-6-6---9-9-9-9-9-9-9-9----------------
[]---3-3-3-3-3-3-3-3---4-4-4-4-4-4-4-4---7-7-7-7-7-7-7-7----------------
[]-0-----------------0-----------------0--------------------------------
p.m. ---------------p.m---------------p.m----------------


                        pre chorus
[ Tab from: http://www.guitartabs.cc/tabs/r/rb32/memories_tab.html ]
[]-----------------------------------------
[]-----------------------------------------
[]-----------------------------------------
[]-5-5--6-6--5-5--6-6--5-5--6-6--5-5--6-6--
[]-0-0--0-0--0-0--0-0--0-0--0-0--0-0--0-0--
[]-----------------------------------------

                      chorus

[]-----------------------------------------------------------------
[]-----------------------------------------------------------------
[]----------------------------8-8-8-8-8-8-8-8-8--------------------
[]----7-7-7-7-7-7-7-7---------8-8-8-8-8-8-8-8-8--8-8-8-8-8-8-8-8---
[]----7-7-7-7-7-7-7-7---------6-6-6-6-6-6-6-6-6--8-8-8-8-8-8-8-8---
[]----5-5-5-5-5-5-5-5----------------------------6-6-6-6-6-6-6-6---
                     
                              solo
[]--------------------------------------------------------------------
[]--------------------------------------------------------------------
[]--------------------------------------------------------------------
[]--------------------------------------------------------------------
[]-----6-6---6-6-6-----------7-7-----7-7-7--------8-8-------8-8-8-----
[]-----4-4---4-4-4-----------5-5-----5-5-5--------6-6-------6-6-6-----
  p.m.----            p.m.-------           pm.-------
Comments