Razorlight - Which Way Is Out Chords & Tabs

 

Which Way Is Out Chords & Tabs

Razorlight Chords & Tabs

Version: 1 Type: Tab 0 ratings
1 star 2 stars 3 stars 4 stars 5 stars
comments

Which Way Is Out Tab

   
Razorlight - Which way is out

Great song of the brilliant new album. 
Got tired of there being hardley any Razorlight tabs up so I did it myself.
This ones pretty easy but sounds great. Try it acoustic - sounds good.
Dave.

Standard tuning

Intro
	D			Em			D
e------------------|    |------------------|    |------------------|
B------7-7-----7-7-|    |------8-8-----8-8-|    |------7-7-----7-7-|
G------7-7-----7-7-|    |------9-9-----9-9-|    |------7-7-----7-7-|
D------7-7-----7-7-|    |------9-9-----9-9-|    |------7-7-----7-7-|
A--5-5-5-5-5-5-5-5-| X4 |--7-7-7-7-7-7-7-7-| X2 |--5-5-5-5-5-5-5-5-| x2
E------------------|    |------------------|    |------------------|

Verse (continue pattern as in intro)

D
This party isn't working oh no.
		 Em
We need to find days like we used to 
living off a shoe string never, never knew
		      D
What the night would bring
 D
Now you look like you've been up for days
 Em
People walk in then they fall out
				   D
There's really not much to shout about

BRIDGE
	   D		
Still you rack 'em up, knock 'em back, line 'em up, put 'em down
				     Em
Have a little taste, then you look about
	  D							
Yeah you rack 'em up, knock 'em back, line 'em up, put 'em down
				     Em		
Have a little taste, then you figure out
And it all comes out

CHORUS
		Em						    D
And you say I just can't get there no more so tell me which way is out?
	       Em						    D
And you say I just can't get there no more so tell me which way is out?


VERSE 2
   D
I put your picture right up on my wall
	Em
I said show me how to walk, show me how to talk, show me how to be a man
D
That's all I need

And I really put all my faith in you
	 Em
But you left it right there at the top of the stairs
					     D	
With a mind half gone and you never even cared

[ Tab from: http://www.guitartabs.cc/tabs/r/razorlight/which_way_is_out_tab.html ]
BRIDGE
	   D		
Still you rack 'em up, knock 'em back, line 'em up, put 'em down
				     Em
Have a little taste, then you look about
	  D							
Yeah you rack 'em up, knock 'em back, line 'em up, put 'em down
				     Em		
Have a little taste, then you figure out
And it all comes out


CHORUS
		Em						    D
And you say I just can't get there no more so tell me which way is out?
	       Em						    D
And you say I just can't get there no more so tell me which way is out?
		     Em
Tell me which way's out
		     D
Tell me which way's out
		     Em
Tell me which way's out

e-------10--------10---------10----------10---12-10--------------10---|
B---------------------------------------------------10-----12---------|
G-11-12------11-12------11-12------11-12------------------------------|
D---------------------------------------------------------------------|
A---------------------------------------------------------------------|
E---------------------------------------------------------------------|

OUTRO

e------------------------------------------------------------------------|
B--8-8---8-8---8-8---9-9---8--8---7-------7-------7-------7-7-7-7-7------|  
G--9-9---9-9---9-9---9-9---9--9---7-------7-------7-7-7-7-7-7-7-7-7------|  
D--9-9---9-9---9-9---9-9---9--9---7-------7-7-7-7-7-7-7-7-7-7-7-7-7------|  
A--7-7---7-7---7-7---7-7---7--7---5-5-5-5-5-5-5-5-5-5-5-5-5-5-5-5-5------|  
E------------------------------------------------------------------------|  
                                                    |     
e--------------------------------------|           On this D part you can do
B--8-8---8-8---8-8---9-9---8--8---7----|           What you like. I think  
G--9-9---9-9---9-9---9-9---9--9---7----|           this progression of adding
D--9-9---9-9---9-9---9-9---9--9---7----|           a string each time sounds
A--7-7---7-7---7-7---7-7---7--7---5----|           good.
E--------------------------------------|

fin
Comments