Razorlight - Vice Chords & Tabs

 

Vice Chords & Tabs

Razorlight Chords & Tabs

Version: 1 Type: Tab 0 ratings
1 star 2 stars 3 stars 4 stars 5 stars
comments

Vice Tab

   
This a great single, im glad they released it!
Im 97% sure this tab is good, im crap at chords so my friend sorted out the chords
while i did the rest, but played together it sounds pretty good.

Standard Tuning

Chord Structure:
  A:      D:     E:    F#m:
 --5--  --5--  --7--   --9----|
 --7--  --5--  --7--   --9----|
 --7--  --7--  --9--   --11---|
 --6--  --7--  --9--   --11---|
 --5--  --7--  --9--   --10---|
 --5--  --5--  --7--   --9----|

Intro:
Guitar 1:
-----------------------------------------------------------------------|
-----------------------------------------------------------------------|
-----------------------------------------------------------------------|
-7---7---7---7---7---7---9---9---7---7---7---7---7---7----9~--11~------| x2
---7---7---7---7---5---5---7---7---7---7---7---7---5---5---------------|
-----------------------------------------------------------------------|

Guitar 2:
-5-5-5-5-5-5-5-5-5-5-5-5-5-4-4-4-4-5-5-5-5-5-5-5-5-5-5-5-5-4-4-4-4------|
-5-5-5-5-5-5-5-5-5-7-7-7-7-5-5-5-5-5-5-5-5-5-5-5-5-7-7-7-7-5-5-5-5------|
------------------------------------------------------------------------| x2
------------------------------------------------------------------------|
------------------------------------------------------------------------|
------------------------------------------------------------------------|

D
E

Verse:
A
Wild is the wind
F#m
That strips away our sins
A
Yours is the night
F#m
But you don't know where to begin.
D
But I heard you say

And Guitar 2 plays                      play this 1st verse | this 2nd verse
-----------------7~--------------------|--------------------|-------------|
-5----------------------5--------------|--------12----------|---12--------|
-----9---------9---------------9-------|9---------9----9----|-9------9----|
---7~--9~-9/11--------7---7--9---9-9/11|--11-9-----9~------ |------9---9--|
---------------------------------------|--------------------|-------------|
---------------------------------------|--------------------|-------------|
[ Tab from: http://www.guitartabs.cc/tabs/r/razorlight/vice_tab.html ]
-----------------------------------------------------------------------------|
-----------------------------------------------------------------------------|
------------------------7-7-7-7-7-7-7-7-9-9-9-9-9-9-9-9-11-11-11-11-13-13-13-|
11-11-11-11-11-11-11-11------------------------------------------------------|
-----------------------------------------------------------------------------|
-----------------------------------------------------------------------------|

Guitar 1
E
You've got a feeling that it's
F#m
Just around the bend
D
And I heard you say
E
Sometimes you fall
D                           E
Into the arms of no one at all

Bridge:
D
I need to say
E
That that's alright
D               E
I'll do what I can

Chorus:
A - D - E  (x 4)

Oh sometimes I run and
Yeah sometimes I fall
But if it's L-O-V-E-R
I'll see you later
L-O-V-E-R, I'll see you later.

Break:

A - F#m D-E

Verse 2:
A
Yours is the fire
F#m
That gets in my head
A
Mine is desire
        F#m
So let it burn down your bed
D
Cos I heard about the stories yeah

(Guitar 2's part)

E
I guess everyone has
F#m
And I heard them say
D
Sometimes you fall
E
Just on your own with
D          E
No one at all

Bridge:
D
I need to say
E
That that's alright
D               E
I'll do what I can

Chorus:
A - D - E  (x 4)

Oh sometimes I run and
Yeah sometimes I fall
But if it's L-O-V-E-R
I'll see you later
L-O-V-E-R, I'll see you later.

BREAK:

F#m-F#m-F#m-F#m-E

F#m-F#m-F#m-D-E

Chorus:
A - D - E  (x 4)

Oh sometimes I run and
Yeah sometimes I fall
But if it's L-O-V-E-R
I'll see you later
L-O-V-E-R, I'll see you later.

Outro:
F#m-F#m-F#m-F#m-E

F#m-F#m-F#m-D-E

And there you go, one Razorlight tab! And if you havent got razorlights album
(up all night)THEN GO GET IT!
Comments