Razorlight - Rock N Roll Lies Chords & Tabs

 

Rock N Roll Lies Chords & Tabs

Razorlight Chords & Tabs

Version: 1 Type: Tab 0 ratings
1 star 2 stars 3 stars 4 stars 5 stars
comments

Rock N Roll Lies Tab

Intro & Main Riff
e|---------------------------------------------------------------|
B|---------------------------------------------------------------|
G|---------------------------------------------------------------|
D|--9--9--9---9--9--9---9--9---7-7-7--7-7-7--7-7-----------------|
A|-11-11-11--11-11-11--11-11---9-9-9--9-9-9--9-9-----------------|
E|--0--0--0---0--0--0---0--0---0-0-0--0-0-0--0-0-----------------|


e|---------------------------------------------------------------|
B|---------------------------------------------------------------|
G|---------------------------------------------------------------|
D|--9--9--9---9--9--9---9--9---7-7-7--7-7-7--7-7-----------------|
A|-11-11-11--11-11-11--11-11---9-9-9--9-9-9--9-9-----------------|
E|--0--0--0---0--0--0---0--0---0-0-0--0-0-0--0-0-----------------|


e|---------------------------------------------------------|
B|---------------------------------------------------------|
G|---------------------------------------------------------|
D|-11-11-11--11-11-11--11-11---11-11-11--11-11-11--11-11---|
A|--0--0--0---0--0--0---0--0----0--0--0---0--0--0---0--0---|
E|---------------------------------------------------------|

VERSE...

  There's too much silence in her night
e|---------------------------------------------------------------|
B|---------------------------------------------------------------|
G|---------------------------------------------------------------|
D|--9--9--9---9--9--9---9--9---7-7-7--7-7-7--7-7-----------------|
A|-11-11-11--11-11-11--11-11---9-9-9--9-9-9--9-9-----------------|
E|--0--0--0---0--0--0---0--0---0-0-0--0-0-0--0-0-----------------|


  She calls herself an angel, and she comes to town
e|---------------------------------------------------------------|
B|---------------------------------------------------------------|
G|---------------------------------------------------------------|
D|--9--9--9---9--9--9---9--9---7-7-7--7-7-7--7-7-----------------|
A|-11-11-11--11-11-11--11-11---9-9-9--9-9-9--9-9-----------------|
E|--0--0--0---0--0--0---0--0---0-0-0--0-0-0--0-0-----------------|


    Thats L-O-N-D-O-N             Just so she can fall
e|---------------------------------------------------------|
B|---------------------------------------------------------|
G|---------------------------------------------------------|
D|-11-11-11--11-11-11--11-11---11-11-11--11-11-11--11-11--|
A|--0--0--0---0--0--0---0--0----0--0--0---0--0--0---0--0--|
E|---------------------------------------------------------|


  There's something about the way she walks, you know
e|---------------------------------------------------------------|
B|---------------------------------------------------------------|
G|---------------------------------------------------------------|
D|--9--9--9---9--9--9---9--9---7-7-7--7-7-7--7-7-----------------|
A|-11-11-11--11-11-11--11-11---9-9-9--9-9-9--9-9-----------------|
E|--0--0--0---0--0--0---0--0---0-0-0--0-0-0--0-0-----------------|

[ Tab from: http://www.guitartabs.cc/tabs/r/razorlight/rock_n_roll_lies_tab.html ]
  It suits the city streets so well and yet
e|---------------------------------------------------------------|
B|---------------------------------------------------------------|
G|---------------------------------------------------------------|
D|--9--9--9---9--9--9---9--9---7-7-7--7-7-7--7-7-----------------|
A|-11-11-11--11-11-11--11-11---9-9-9--9-9-9--9-9-----------------|
E|--0--0--0---0--0--0---0--0---0-0-0--0-0-0--0-0-----------------|


  No one's heard her band yet, but they play real well
e|---------------------------------------------------------|
B|---------------------------------------------------------|
G|---------------------------------------------------------|
D|-11-11-11--11-11-11--11-11-11--11-11-11--11-11--11-11----|
A|--0--0--0---0--0--0---0--0--0---0--0--0---0--0---0--0----|
E|---------------------------------------------------------|


CHORUS...

  Here it comes now   .....    there's nothing to say
e|---------------------------------------------------------------|
B|---------------------------------------------------------------|
G|---------------------------------------------------------------|
D|--9--9--9---9--9--9---9--9---7-7-7--7-7-7--7-7-----------------|
A|-11-11-11--11-11-11--11-11---9-9-9--9-9-9--9-9-----------------|
E|--0--0--0---0--0--0---0--0---0-0-0--0-0-0--0-0-----------------|


  There goes again   .....     but no one cares anyway
e|---------------------------------------------------------------|
B|---------------------------------------------------------------|
G|---------------------------------------------------------------|
D|--9--9--9---9--9--9---9--9---7-7-7--7-7-7--7-7-----------------|
A|-11-11-11--11-11-11--11-11---9-9-9--9-9-9--9-9-----------------|
E|--0--0--0---0--0--0---0--0---0-0-0--0-0-0--0-0-----------------|


   He sees your eyes .....     you're rock'n'roll eyes
e|---------------------------------------------------------|
B|---------------------------------------------------------|
G|---------------------------------------------------------|
D|-11-11-11--11-11-11--11-11-11--11-11-11--11-11--11-11----|
A|--0--0--0---0--0--0---0--0--0---0--0--0---0--0---0--0----|
E|---------------------------------------------------------|


BRIDGE...

e|------------------------------------------------------------|
B|------------------------------------------------------------|
G|--11-11-11-11/-7-7------------------------------------------|
D|---0--0--0--0/-0-0-------11-11-11-11-11-11-9-9--------------|
A|--------------------------0--0--0--0--0--0-0-0--------------|
E|------------------------------------------------------------|

verse 2 and 3 has same tabs as verse 1(lyrics below)



LYRICS TO SECOND VERSE

You've seen the man, he calls out for a drink, and you're all
You're all tied up in your backstage lines
And you, you just can't move a muscle

Six in the morning and you rise and you fall, you got to
You got to grab what you can
Here comes your man, baby, he's a winner, yeah
He's a gunslinger

BRIDGE  (play 4 times)


LYRICS TO THIRD VERSE

Oh baby, when you say my name I get, such a thrill inside
She says there's something in the way that I look at her
Yeah, I guess it's right here in my eyes
I can't lie 

but here comes now, there's nothing to say
there goes again, but no-one cares anyway
he sees your eyes, your rock'n'roll eyes
Oh just like mine, just  rock'n'roll eyes
Oh it's just the lies, it's just the rock'n'roll lies ohhhhhh!
bridge(played with lyrics)
yes just, yes just lies and the and the lies and the lies and the lies

end

hope you enjoy!

by Scott brown(my first tab)  - please! please! rate it well
Comments