Razorlight - Rip It Up Chords & Tabs

 

Rip It Up Chords & Tabs

Razorlight Chords & Tabs

Version: 2 Type: Tab 0 ratings
1 star 2 stars 3 stars 4 stars 5 stars
comments

Rip It Up Tab

Rip It Up-Razorlight
Tabbed By Tim Addison

The song is in standard tuning (EADGBE)

If you have any comments,suggestions or queries please e-mail me at tjarocks@hotmail.com

Intro (w/distortion)

-7-7-7-7-----5-5-5-5-5----7-7-7-7--5-5-5-5-5-| Repeat x2
-7-7-7-7-----7-7-7-7-7----7-7-7-7--7-7-7-7-7-|
-7-7-7-7-----7-7-7-7-7----7-7-7-7--7-7-7-7-7-|
-------------0-0-0-0-0----x--------0-0-0-0-0-|
--------------------------0------------------|
---------------------------------------------|

verse

-7-7-7-7-----5-5-5-5-5----7-7-7-7--5-5-5-5-5-| Repeat x4
-7-7-7-7-----7-7-7-7-7----7-7-7-7--7-7-7-7-7-|
-7-7-7-7-----7-7-7-7-7----7-7-7-7--7-7-7-7-7-|
-x-----------0-0-0-0-0----x--------0-0-0-0-0-|
-0------------------------0------------------|
---------------------------------------------|
Guitar 1
[ Tab from: http://www.guitartabs.cc/tabs/r/razorlight/rip_it_up_tab_ver_2.html ]
--2------------------------------------------|
--3------------------------------------------|
--2------------------------------------------|
--0------------------------------------------|
---------------------------------------------|
---------------------------------------------|
(Let ring)
Guitar 2

Chorus (Both guitars)

-3-3-3-3-3-3-3-3--| Repeat x4
-3-3-3-3-3-3-3-3--|
-4-4-4-4-4-4-4-4--|
-5-5-5-5-5-5-5-5--|
------------------|
------------------|

Solo

-7-7-7-7------5-5-5-5-------------| Repeat x4
-7-7-7-7------5-5-5-5-------------|
-7-7-7-7------5-5-5-5-------------|
-0------------x-------------------|
--------------0-------------------|
----------------------------------|
(Let ring)
Guitar 1

----------------------------------|
-----7-----7-----7-----7-8-7------|
-7-9---7-9---7-9---7-9-------7-9--|
----------------------------------|
----------------------------------|
----------------------------------|

Put the song together to make it sound good.Good luck.
Comments