Razorlight - Leave Me Alone Chords & Tabs

 

Leave Me Alone Chords & Tabs

Razorlight Chords & Tabs

Version: 1 Type: Tab 0 ratings
1 star 2 stars 3 stars 4 stars 5 stars
comments

Leave Me Alone Tab

Key:
[] - Let ring
/ - Slide

Intro

E|--4-/-6--6-6-6----4-4-4-4------|
B|--4-/-6--6-6-6----4-4-4-4------|
G|--5-/-7--7-7-7----5-5-5-5------|
D|--6-/-8--8-8-8----6-6-6-6------|    X 8
A|--6-/-8--8-8-8----6-6-6-6------|
E|--4-/-6--6-6-6----4-4-4-4------|

//Small guitar part that comes in during intro.\\

E|--------------------------------|
B|-6-6-6-6-6-6-6-6-6-6-6-6-6-6-6--|
G|--------------------------------|
D|--------------------------------|
A|--------------------------------|
E|--------------------------------|

Verse
//For the verse just play the intro chords.\\

Chorus

E|--4--4--4--4----6--6----8---8------[4]--|
B|--4--4--4--4----8--8----10--10-----[4]--|
G|--5--5--5--5----8--8----10--10-----[5]--|
D|--6--6--6--6----8--8----10--10-----[6]--|
A|--6--6--6--6----6--6----8---8------[6]--|
E|--4--4--4--4-----------------------[4]--|


//Before the verse in one part of the song play this.\\

E|--4444---|
B|--4444---|
G|--5555---|
D|--8888---|
A|--8888---|
E|--6666---|

[ Tab from: http://www.guitartabs.cc/tabs/r/razorlight/leave_me_alone_tab.html ]
Bridge
E|--8------10--8----------8------10--8----------8----|
B|--10-----------10-------10-----------10-------10---|
G|--10--------------10----10--------------10----10---|
D|--10--------------------10--------------------10---|
A|--8---------------------8---------------------8----|
E|---------------------------------------------------|

//During the solo play this.\\

E|--4-/-6--6-6-6----4-4-4-4------|
B|--4-/-6--6-6-6----4-4-4-4------|
G|--5-/-7--7-7-7----5-5-5-5------|
D|--6-/-8--8-8-8----6-6-6-6------|     X 8
A|--6-/-8--8-8-8----6-6-6-6------|
E|--4-/-6--6-6-6----4-4-4-4------|

//During the solo play this three times.\\

E|--7-/-9---9---9-----7-7-7-7----|
B|--7-/-9---9---9-----7-7-7-7----|
G|--8-/-10--10--10----8-8-8-8----|
D|--9-/-11--11--11----9-9-9-9----|     X 3
A|--9-/-11--11--11----9-9-9-9----|
E|--7-/-9---9---9-----7-7-7-7----|


//Then this after it.\\
E|--[4]---------------[4]------------|
B|--[4]---------------[4]------------|
G|--[5]---------------[5]------------|
D|--[6]---------------[6]------------|
A|--[6]---------------[6]------------|
E|--[4]---------------[4]------------|

//Then just play the intro to the end.\\
Comments