Razorlight - Golden Touch Chords & Tabs

 

Golden Touch Chords & Tabs

Razorlight Chords & Tabs

Version: 2 Type: Tab 3 ratings
1 star 2 stars 3 stars 4 stars 5 stars
comments

Golden Touch Tab

   
#----------------------------------PLEASE NOTE---------------------------------#
#This file is the author's own work and represents their interpretation of the #
#song. You may only use this file for private study, scholarship, or research. #
#------------------------------------------------------------------------------#

GOLDEN TOUCH
As recorded by Razorlight
(From the 2004 Album UP ALL NIGHT)

Transcribed by cali_8o5
	



Gtr I (E A D G B E) - 'Rhythm'
Gtr II (E A D G B E) - 'Lead with harmonics'
Gtr III (E A D G B E) - 'Lead with distortion'

 Intro             Verse
  Q=100
  B/F#              C#m               A       G#        C#m
 4/4
  Gtr I
  E E E E E E E E   E E E E E E E E   E E E E E E E E   E E E E E E E E
|-----------------|-----------------|-----------------|------------------|
|-4-4-4-4-4-4-4-4-|-5-5-5-5-5-5-5-5-|-----------------|-5-5-5-5-5-5-5-5--|
|-4-4-4-4-4-4-4-4-|-6-6-6-6-6-6-6-6-|-6-6-6-6-5-5-5-5-|-6-6-6-6-6-6-6-6--|
|-4-4-4-4-4-4-4-4-|-6-6-6-6-6-6-6-6-|-7-7-7-7-6-6-6-6-|-6-6-6-6-6-6-6-6--|
|-----------------|-4-4-4-4-4-4-4-4-|-7-7-7-7-6-6-6-6-|-4-4-4-4-4-4-4-4--|
|-----------------|-----------------|-5-5-5-5-4-4-4-4-|------------------|


  F#5     G#5       C#m               E       B/Eb      C#m
  Gtr I
  E E E E E E E E   E E E E E E E E   E E E E E E E E   E E E E E E E E
|-----------------|-----------------|-----------------|------------------|
|-----------------|-5-5-5-5-5-5-5-5-|-9-9-9-9-7-7-7-7-|-5-5-5-5-5-5-5-5--|
|-----------------|-6-6-6-6-6-6-6-6-|-9-9-9-9-8-8-8-8-|-6-6-6-6-6-6-6-6--|
|-4-4-4-4-6-6-6-6-|-6-6-6-6-6-6-6-6-|-9-9-9-9-9-9-9-9-|-6-6-6-6-6-6-6-6--|
|-4-4-4-4-6-6-6-6-|-4-4-4-4-4-4-4-4-|-7-7-7-7-6-6-6-6-|-4-4-4-4-4-4-4-4--|
|-2-2-2-2-4-4-4-4-|-----------------|-----------------|------------------|


  F#5     G#5       F#5     G#5       C#m
  Gtr I
  E E E E E E E E   E E E E E E E E   E E E E E E E E
|-----------------|-----------------|-----------------|
|-----------------|-----------------|-5-5-5-5-5-5-5-5-|
|-----------------|-----------------|-6-6-6-6-6-6-6-6-|
|-4-4-4-4-6-6-6-6-|-4-4-4-4-6-6-6-6-|-6-6-6-6-6-6-6-6-|
|-4-4-4-4-6-6-6-6-|-4-4-4-4-6-6-6-6-|-4-4-4-4-4-4-4-4-|
|-2-2-2-2-4-4-4-4-|-2-2-2-2-4-4-4-4-|-----------------|


   Chorus                                    Pre-Verse
    C#m     B             A       B           C#m
    Gtr I
    E E E E  E  E  E  E   E E E E E E E E  4x E E E E E E E E
||----------------------|-0-0-0-0----------||-----------------|
||o-5-5-5-5--4--4--4--4-|-2-2-2-2-4-4-4-4-o||-5-5-5-5-5-5-5-5-|
||--6-6-6-6--4--4--4--4-|-2-2-2-2-4-4-4-4--||-6-6-6-6-6-6-6-6-|
||--6-6-6-6--4--4--4--4-|-2-2-2-2-4-4-4-4--||-6-6-6-6-6-6-6-6-|
||o-4-4-4-4--2--2--2--2-|-0-0-0-0-2-2-2-2-o||-4-4-4-4-4-4-4-4-|
||----------------------|------------------||-----------------|
|
|   Gtr II
|   E E E E  E  E  E  E   E E E E E E E E  4x W
||------9---11-------11-|-----5-----5---7--||-----------------|
||o---9---9----12-------|-------5---------o||-----------------|
||--9-------------11----|---6-----6---8----||-----------------|
||----------------------|-7----------------||-----------------|
||o---------------------|-----------------o||-----------------|
||----------------------|------------------||-----------------|


 Verse
  A       G#        C#m               F#5      G#5       C#m
  Gtr I
  E E E E E E E E   E E E E E E E E   E E E  E E E E E   E E E E E E E E
|-----------------|-----------------|------------------|------------------|
|-----------------|-5-5-5-5-5-5-5-5-|------------------|-5-5-5-5-5-5-5-5--|
|-6-6-6-6-5-5-5-5-|-6-6-6-6-6-6-6-6-|------------------|-6-6-6-6-6-6-6-6--|
|-7-7-7-7-6-6-6-6-|-6-6-6-6-6-6-6-6-|-4-4-4--4-6-6-6-6-|-6-6-6-6-6-6-6-6--|
|-7-7-7-7-6-6-6-6-|-4-4-4-4-4-4-4-4-|-4-4-4--4-6-6-6-6-|-4-4-4-4-4-4-4-4--|
|-5-5-5-5-4-4-4-4-|-----------------|-2-2-2--2-4-4-4-4-|------------------|
|
| Gtr III
| E E E Q   E E E   W                 E E Q.     E E E   W
|-----------------|-----------------|------------------|------------------|
|-----5-4-------4-|-5---------------|------------7-5---|------------------|
|---6-------4-----|-----------------|-----6----------6-|------------------|
|-7-----------6---|-----------------|---7--------------|-6----------------|
|-----------------|-----------------|-7----------------|------------------|
|-----------------|-----------------|------------------|------------------|


  E       B/Eb      C#m               F#5     G#5       F#5     G#5
  Gtr I
  E E E E E E E E   E E E E E E E E   E E E E E E E E   E E E E E E E E
|-----------------|-----------------|-----------------|------------------|
|-9-9-9-9-7-7-7-7-|-5-5-5-5-5-5-5-5-|-----------------|------------------|
|-9-9-9-9-8-8-8-8-|-6-6-6-6-6-6-6-6-|-----------------|------------------|
|-9-9-9-9-9-9-9-9-|-6-6-6-6-6-6-6-6-|-4-4-4-4-6-6-6-6-|-4-4-4-4-6-6-6-6--|
|-7-7-7-7-6-6-6-6-|-4-4-4-4-4-4-4-4-|-4-4-4-4-6-6-6-6-|-4-4-4-4-6-6-6-6--|
|-----------------|-----------------|-2-2-2-2-4-4-4-4-|-2-2-2-2-4-4-4-4--|
|
| Gtr III
| E E E E E E E E   E E E E E Q   E   E E E E E E E E   E E E E E E E E
|---4-7-4---4-7-4-|---4-7-4---------|-----------------|-----5-------7----|
|-5-------4-------|---------7-5-----|-----7-------9---|---7---7---9---9--|
|-----------------|-6---------------|---6---6---8---8-|-6-------8--------|
|-----------------|-----------------|-7-------9-------|------------------|
|-----------------|-----------------|-----------------|------------------|
|-----------------|-----------------|-----------------|------------------|


                            Chorus
  C#m/Ab       C#m           C#m C#m/Ab   B/F#   A   A/E  A/E  B/F#
  Gtr I
    W           W            E E  E E E E  E E   E E  E E  E E  E E   4x
|------------|-----------||--------------------|-0-0--0-0-------------||
|------------|-!5--------||o-5-5--5-5-4-4--4-4-|-2-2--2-2--4-4--4-4--o||
|------------|-!6--------||--6-6--6-6-4-4--4-4-|-2-2--2-2--4-4--4-4---||
|------------|-!6--------||--6-6--6-6-4-4--4-4-|-2-2--2-2--4-4--4-4---||
|------------|-!4--------||o-4-4--4-4-2-2--2-2-|-0-0--0-0--2-2--2-2--o||
|------------|-----------||--------------------|----------------------||
|
| Gtr III
|   W           W            Q    Q   Q    Q     Q    E E  E E  Q     4x
|-!12--------|-----------||--x---12---x---11---|-x----9-x--9-x-11-----||
|-!14--------|-----------||o-x---14---x---12---|-x---10-x-10-x-12----o||
|-!13--------|-----------||--x---13---x---11---|-x----9-x--9-x-11-----||
|------------|-----------||--------------------|----------------------||
|------------|-----------||o-------------------|---------------------o||
|------------|-----------||--------------------|----------------------||

[ Tab from: http://www.guitartabs.cc/tabs/r/razorlight/golden_touch_tab_ver_2.html ]
 Interlude
  C#m
  Gtr I
  E E E E E E E E   E E E E E E E E   E E E E E E E E
|-----------------|-----------------|-----------------|
|-5-5-5-5-5-5-5-5-|-5-5-5-5-5-5-5-5-|-5-5-5-5-5-5-5-5-|
|-6-6-6-6-6-6-6-6-|-6-6-6-6-6-6-6-6-|-6-6-6-6-6-6-6-6-|
|-6-6-6-6-6-6-6-6-|-6-6-6-6-6-6-6-6-|-6-6-6-6-6-6-6-6-|
|-4-4-4-4-4-4-4-4-|-4-4-4-4-4-4-4-4-|-4-4-4-4-4-4-4-4-|
|-----------------|-----------------|-----------------|


 Verse
  A       G#        C#m               F#5      G#5       C#m
  Gtr I
  PM-------------------------------------------------------------------|
  E E E E E E E E   E E E E E E E E   E E E  E E E E E   E E E E E E E E
|-----------------|-----------------|------------------|------------------|
|-----------------|-5-5-5-5-5-5-5-5-|------------------|-5-5-5-5-5-5-5-5--|
|-6-6-6-6-5-5-5-5-|-6-6-6-6-6-6-6-6-|------------------|-6-6-6-6-6-6-6-6--|
|-7-7-7-7-6-6-6-6-|-6-6-6-6-6-6-6-6-|-4-4-4--4-6-6-6-6-|-6-6-6-6-6-6-6-6--|
|-7-7-7-7-6-6-6-6-|-4-4-4-4-4-4-4-4-|-4-4-4--4-6-6-6-6-|-4-4-4-4-4-4-4-4--|
|-5-5-5-5-4-4-4-4-|-----------------|-2-2-2--2-4-4-4-4-|------------------|
|
| Gtr III
| E E E Q   E E E   W                 E E Q.     E E E   W
|-----------------|-----------------|------------------|------------------|
|-----5-4-------4-|-5---------------|------------7-5---|------------------|
|---6-------4-----|-----------------|-----6----------6-|------------------|
|-7-----------6---|-----------------|---7--------------|-6----------------|
|-----------------|-----------------|-7----------------|------------------|
|-----------------|-----------------|------------------|------------------|


  E       B/Eb      C#m               F#5               C#m
  Gtr I
  PM------------------------------------------------------------------|
  E E E E E E E E   E E E E E E E E   E E E E E E E E   E E E E E E E E
|-----------------|-----------------|-----------------|------------------|
|-9-9-9-9-7-7-7-7-|-5-5-5-5-5-5-5-5-|-----------------|-5-5-5-5-5-5-5-5--|
|-9-9-9-9-8-8-8-8-|-6-6-6-6-6-6-6-6-|-7-7-7-7---------|-6-6-6-6-6-6-6-6--|
|-9-9-9-9-9-9-9-9-|-6-6-6-6-6-6-6-6-|-7-7-7-7-7-7-7-7-|-6-6-6-6-6-6-6-6--|
|-7-7-7-7-6-6-6-6-|-4-4-4-4-4-4-4-4-|-5-5-5-5-7-7-7-7-|-4-4-4-4-4-4-4-4--|
|-----------------|-----------------|---------5-5-5-5-|------------------|
|
| Gtr III
| E E E E E E E E   E E E E E Q   E   E E E E E E E E   W
|---4-7-4---4-7-4-|---4-7-4---------|-----------------|------------------|
|-5-------4-------|---------7-5-----|-7-----7-5-----5-|-2----------------|
|-----------------|-6---------------|---7-------6-----|------------------|
|-----------------|-----------------|-----7-------7---|------------------|
|-----------------|-----------------|-----------------|------------------|
|-----------------|-----------------|-----------------|------------------|


  F#5     G#5       C#m
  Gtr I
  PM------------------------------|
  E E E E E E E E   E E E E E E E E
|-----------------|-----------------|
|-----------------|-5-5-5-5-5-5-5-5-|
|-7-7-7-7---------|-6-6-6-6-6-6-6-6-|
|-7-7-7-7-7-7-7-7-|-6-6-6-6-6-6-6-6-|
|-5-5-5-5-7-7-7-7-|-4-4-4-4-4-4-4-4-|
|---------5-5-5-5-|-----------------|
|
| Gtr III
| E E E E E E E E   W
|-----------------|-----------------|
|-7-----7-5-----5-|-2---------------|
|---7-------6-----|-----------------|
|-----7-------7---|-----------------|
|-----------------|-----------------|
|-----------------|-----------------|


   Out-Chorus
    C#m     B             A       B
    E E E E  E  E  E  E   E E E E E E E E   4x
||----------------------|-0-0-0-0-----------||
||o-5-5-5-5--4--4--4--4-|-2-2-2-2-4-4-4-4--o||
||--6-6-6-6--4--4--4--4-|-2-2-2-2-4-4-4-4---||
||--6-6-6-6--4--4--4--4-|-2-2-2-2-4-4-4-4---||
||o-4-4-4-4--2--2--2--2-|-0-0-0-0-2-2-2-2--o||
||----------------------|-------------------||
|
|   E E E E  E  E  E  E   E E E E E E E E   4x
||------9---11-------11-|-----5-----5---7---||
||o---9---9----12-------|-------5----------o||
||--9-------------11----|---6-----6---8-----||
||----------------------|-7-----------------||
||o---------------------|------------------o||
||----------------------|-------------------||


  C#m                   C#m     C#m           A       B
  Gtr I
    <
    E E E E E E E E     E E E E  E  E  E  E   E E E E E E E E  4x   W
|-------------------||----------------------|-0-0-0-0----------||--------|
|---5-5-5-5-5-5-5-5-||o-5-5-5-5--4--4--4--4-|-2-2-2-2-4-4-4-4-o||--------|
|---6-6-6-6-6-6-6-6-||--6-6-6-6--4--4--4--4-|-2-2-2-2-4-4-4-4--||--------|
|---6-6-6-6-6-6-6-6-||--6-6-6-6--4--4--4--4-|-2-2-2-2-4-4-4-4--||--------|
|---4-4-4-4-4-4-4-4-||o-4-4-4-4--2--2--2--2-|-0-0-0-0-2-2-2-2-o||--------|
|-------------------||----------------------|------------------||--------|
|
| Gtr III
|   W                   E E E E  E  E  E  E   E E E E E E E E  4x   W
|-!12---------------||------9---11-------11-|-----5-----5---7--||-!12----|
|-!14---------------||o---9---9----12-------|-------5---------o||-!14----|
|-!13---------------||--9-------------11----|---6-----6---8----||-!13----|
|-------------------||----------------------|-7----------------||--------|
|-------------------||o---------------------|-----------------o||--------|
|-------------------||----------------------|------------------||--------|


   Outro
    A/E    B/F#     C#m/Ab
      H      H        W         3x W
||--!-9----!11----|-!12---------||------*|
||o-!10----!12----|-!14--------o||------*|
||--!-9----!11----|-!13---------||------*|
||----------------|-------------||------*|
||o---------------|------------o||------*|
||----------------|-------------||------*|
|
|     W               W         3x W
||----------------|-------------||------*|
||o---------------|------------o||------*|
||----------------|-------------||------*|
||----------------|-------------||------*|
||o---------------|------------o||------*|
||----------------|-------------||------*|



Duration Legend
---------------
W - whole; H - half; Q - quarter; E - 8th; S - 16th; T - 32nd; X - 64th; a - acciaccatura
+ - note tied to previous; . - note dotted; .. - note double dotted
Uncapitalized letters represent notes that are staccato (1/2 duration)
Irregular groupings are notated above the duration line
Duration letters will always appear directly above the note/fret number it represents the
duration for.  Duration letters with no fret number below them represent rests.  Multi-
bar rests are notated in the form Wxn, where n is the number of bars to rest for.  Low
melody durations appear below the staff

Tablature Legend
----------------
 h   - hammer-on
 p   - pull-off
 b   - bend
 pb  - pre-bend
 r   - bend release (if no number after the r, then release immediately)
 /\  - slide into or out of (from/to "nowhere")
 s   - legato slide
 S   - shift slide
 - natural harmonic
[n]  - artificial harmonic
n(n) - tapped harmonic
 ~   - vibrato
 tr  - trill
 T   - tap
 TP  - trem. picking
 PM  - palm muting
\n/  - tremolo bar dip; n = amount to dip
 \n  - tremolo bar down
 n/  - tremolo bar up
/n\  - tremolo bar inverted dip
 =   - hold bend; also acts as connecting device for hammers/pulls
  - volume swell (louder/softer)
 x   - on rhythm slash represents muted slash
 o   - on rhythm slash represents single note slash

Misc Legend
-----------
 |  - bar
||  - double bar
||o - repeat start
o|| - repeat end
*|  - double bar (ending)
 :  - bar (freetime)
 $  - Segno
 &  - Coda
Tempo markers -  = BPM(8/16=s8/s16), where s8 = swing 8ths, s16 = swing 16ths

Comments