Razorlight - Golden Touch Chords & Tabs

 

Golden Touch Chords & Tabs

Razorlight Chords & Tabs

Version: 1 Type: Tab 3 ratings
1 star 2 stars 3 stars 4 stars 5 stars
comments

Golden Touch Tab

   
 Razorlight: Golden Touch (Lead)              Album: Up All Night

 Verse 1:

 
   A        G#m                           C#m   E       E/D#    C#m            F#m     G#m


 E -------------------------------------------------0-------0-------0---0---0-------2-------4-------
 B -----5----4-----4--5------2-----7---5----5-----9---9---9---9---9---7---5-------2---2---4---4-----
 G ---6---6----4------4----2---2---------4--4---9-------8-------6---------------2-------4-----------
 D -7------------6----6--2-----------4------6-------------------------------------------------------
 A -------------------------------------------------------------------------------------------------
 E -------------------------------------------------------------------------------------------------



   F#m     G#m        C#m


 E -----5-------7------12---------
 B ---7---7---9---9----14----14---
 G -6-------8----------13----13---
 D -------------------------------
 A -------------------------------
 E -------------------------------


 Chorus 1:



   C#m    B     A    F#m   G#m


 E -12----11----9-----9-----11----
 B -14----12----10----10----12----
 G -13----11----9-----11----13----
 D -------------------------------
 A -------------------------------
 E -------------------------------  x4



 Verse 2:


   A        G#m      C#m  F#m     G#m      C#m   E       E/D#   C#m               D       A     C#m

[ Tab from: http://www.guitartabs.cc/tabs/r/razorlight/golden_touch_tab.html ]
 E --------------------------------------------------0-------0-------0-----0---0--------------------
 B -----5----4-----4--5-------2----7---5----5------9---9---9---9---9---9-7---5----7-----7-5-----5-5-
 G ---6---6----4------4-----2---2--------4--4----9-------8-------6------------------7-------6-----6-
 D -7------------6----6---2----------4------6-----------------------------------------7-------7---6-
 A -------------------------------------------------------------------------------------------------
 E -------------------------------------------------------------------------------------------------



    D       A       C#m

 E ------------------------
 B -7-----7-5-----5--5-----
 G ---7-------6------6-----
 D -----7-------7----6-----
 A ------------------------
 E ------------------------


 Chorus 2:


   C#m       B           A         F#m   G#m

 E -----9----11----------------9-----------------
 B ---9---9-----12----11----10---10----10----12--
 G -9--------------11----11---------11----13-----
 D ----------------------------------------------
 A ----------------------------------------------
 E ---------------------------------------------- x4


 Then Final Chorus: Same As Chorus 2



 Outro:


   F#m   G#m         C#m    F#m  G#m   C#m    F#m   G#m         C#m


 E -9-----11----14----12-----9----11----12-----9-----11----14----12-----
 B -10----12----------14-----10---12----14-----10----12----------14-----
 G -11----13----------13-----11---13----13-----11----13----------13-----
 D ---------------------------------------------------------------------
 A ---------------------------------------------------------------------
 E --------------------------------------------------------------------
Comments