Razorlight - Golden Touch Chords & Tabs

 

Golden Touch Chords & Tabs

Razorlight Chords & Tabs

Version: 1 Type: Bass Tab 0 ratings
1 star 2 stars 3 stars 4 stars 5 stars
comments

Golden Touch Bass Tab

   
-------------------------------------------------------------------------------
			     Golden Touch - Razorlight
-------------------------------------------------------------------------------

Tabbed By : TommyGz


Tuning: EADG

Verse
	 I know a girl ...
G|-----------------------------------------------------------------|
D|---------------------------1-2-4-------------------------------1-|
A|-----------------4-4-4-4-4-----------------------4-4-4-4-4-2-4---|
E|-5-5-5-5-4-4-4-4-----------------2-2-2-2-4-4-4-4-----------------|

G|-----------------------------------------------------------------|
D|-2-2-2-2-1-1-1-1-----1-1-2-2-4-4---------------------------------|
A|-----------------4-4---------------------------------------------|
E|---------------------------------2-2-2-2-4-4-4-4-2-2-2-2-4-4-4-4-|

G|-------------------|
D|-------------------|
A|-4-4-4-4-4-4-4-444-|
E|-------------------|



Chorus
  All they know ...
G|---------------------------------|
D|---------------1-4-2-------------|
A|-4-4-4-4-2-2-4-------4-2---------|
E|-------------------------2-2-4-4-| x 3
[ Tab from: http://www.guitartabs.cc/tabs/r/razorlight/golden_touch_btab.html ]
G|-----------------2-2-2-2-------------------------------------------|
D|---------------1---------4-4-4-4-----------------------------1-2-4-|
A|-4-4-4-4-2-2-4-------------------4-4-4-4-4-4-4-444-4-4-4-4-4-------|
E|-------------------------------------------------------------------|

Verse

Chorus

Verse 3
	 I saw my girl ...
G|-----------------------------------------------------------------|
D|---------------------------1-2-4-------------------------------1-|
A|-----------------4-4-4-4-4-----------------------4-4-4-4-4-2-4---|
E|-5-5-5-5-4-4-4-4-----------------2-2-2-2-4-4-4-4-----------------|

G|----------------------------------------------------------------------------------|
D|-2-2-2-2-1-1-1-1-----1-1-2-2-4-4--------------------------------------------------|
A|-----------------4-4--------------5-5-5-5-0-0-0-0-4-4-4-4-5-5-5-5-0-0-0-0-4-4-4-4-|
E|----------------------------------------------------------------------------------|

Chorus x2

Outro

G|-------------------------|
D|-------------------------|
A|-4-4-4-4-2-2-2-2-4-4-4-4-|
E|-------------------------|

| /  slide up
| \  slide down
| h  hammer-on
| p  pull-off
| ~  vibrato
| +  harmonic
| x  Mute note
===============================================================================
Comments