Razorback - Summa Cum Laude Chords & Tabs

 

Summa Cum Laude Chords & Tabs

Razorback Chords & Tabs

Version: 1 Type: Tab 0 ratings
1 star 2 stars 3 stars 4 stars 5 stars
comments

Summa Cum Laude Tab

                     "SUMMA CUM LAUDE" BY RAZORBACK
                       transcribed by: freongang
                   visit me at freongang_81@yahoo.com
                        freongang_08@yahoo.com


 intro:
e|---------------------------|
B|---------------------------|
G|---------------------------|
D|-5---5-5-4-4-5-5-7---------|
A|-5---5-5-4-4-5-5-7---------|
E|-3---3-3-2-2-3-3-5---------|

 inspirasyon ng marami...
e|---------------------------------------|
B|---------------------------------------|
G|-----------------5---------------------|
D|-7---7---7---7-0-5-0-5-7---7---7---7---|
A|-7---7---7---7-0-3-0-5-7---7---7---7---|
E|-5-x-5-x-5-x-5-------3-5-x-5-x-5-x-5---|
[ Tab from: http://www.guitartabs.cc/tabs/r/razorback/summa_cum_laude_tab.html ]
 guitar II
e|---------  ----------------  ----------|
B|---------  ------------8b--  ------8b--|
G|---------  -5b-7b------8b--  ---7b-----|
D|---------  -5b-7b--5/7-----  -5--------|
A|-5b-3b-0-  ----------------  ----------|
E|---------  ----------------  ----------|
 
 summa cum laude...
e|------------------------|
B|------------------------|
G|------------------------|
D|-7-7-7-7-4-5-5-7-7------|
A|-7-7-7-7-4-5-5-7-7------|
E|-5-5-5-5-2-3-3-5-5------|

e|---------------------------------------|
B|---------------------------------------|
G|-----------------5---------------------|
D|-7---7---7---7-0-5-0-5-7---7---7---7---|
A|-7---7---7---7-0-3-0-5-7---7---7---7---|
E|-5-x-5-x-5-x-5-------3-5-x-5-x-5-x-5---|


e|------------------------|
B|------------------------|
G|------------------------|
D|-7-7-7-7-7-7-5----------|
A|-7-7-7-7-7-7-5-0--------|
E|-5-5-5-5-5-5-3-0--------|
Comments