Razorback - Payaso Chords & Tabs

 

Payaso Chords & Tabs

Razorback Chords & Tabs

Version: 1 Type: Tab 0 ratings
1 star 2 stars 3 stars 4 stars 5 stars
comments

Payaso Tab

                 "PAYASO"..... IN ENGLISH "EVIL CLOWN"
                         "PAYASO" BY RAZORBACK
                       TRANSCRIBED BY: FREONGANG
                  visit me at: freongang_81@yahoo.com 
                        freongang_08@yahoo.com


 intro:
                X4
e|------------------------------------------------------|
B|------------------------------------------------------|
G|------------------------------------------------------|
D|-----------5b---5-7b-5-7-------------5b---------------|
A|--^--5---7----7----------7-5---5-6-7----7-5-----------|
E|-5-7---7---------------------7--------------5--3-5----|

         X4
e|-------------------------------------|
B|-------------------------------------|
G|--^---------------^-----^------------|
D|-7-9-9-9-9-9-x-x-7-9-9-9-12--12-11---|
A|-5-7-7-7-7-7-x-x-5-7-7-7-10--10-9----|
E|-------------x-x---------------------|

       X4
e|----------------------|
B|----------------------|
G|----------------------|
D|--^----------x-x------|
A|-5-7-7-7-7-7-x-x------|
E|-3-5-5-5-5-5-x-x------|

   sige lang ng sige..............
e|-----------------------------------|
B|-----------------------------------|
G|-----------------------------------|
D|--------5-4-------------7-5--------|
A|--7-5-7-----------7-5-7------------|
E|-----------------------------------|
[ Tab from: http://www.guitartabs.cc/tabs/r/razorback/payaso_tab.html ]
 before solo:
e|----------------------------------------|
B|----------------------------------------|
G|----------------------------------------|
D|----------------------------------------
A|---------5------------------------------|
E|-5-7-7-5---3-5---2-3-3-3-0-2-3----------|

 hindi na baguhan sa pagkukunwari......
       X3
e|-----------------------------|
B|-----------------------------|
G|-----------------------------|
D|-----------------------------|
A|---------------5-------------|
E|-0---0---0-5-7---7-5-3-0-----|
     cont.
e|--------------------------------------|
B|--------------------------------------|
G|--------------------------------------|
D|--------------------------------------|
A|--------------5-----------------------|
E|-0---0--0-5-7---7-5-3-5-5-5-5-3-2-0---|

                X4
e|------------------------------------------------------|
B|------------------------------------------------------|
G|------------------------------------------------------|
D|-----------5b---5-7b-5-7-------------5b---------------|
A|--^--5---7----7----------7-5---5-6-7----7-5-----------|
E|-5-7---7---------------------7--------------5--3-5----|

   NOTE:
                    para sa mga taga sphinx to'........
            
      FOR THE SOLO........
                    for the solo nman email nyo nlng si
                bastardarchie@yahoo.com , kc sya ang nka toka sa lead 
              nung tinugtog nmin yan eh......... tongue out!!!
Comments